  0
SECTION
  2
HEADER
  9
$ACADVER
  1
AC1015
  9
$ACADMAINTVER
 70
    20
  9
$DWGCODEPAGE
  3
ANSI_1252
  9
$INSBASE
 10
0.0
 20
0.0
 30
0.0
  9
$EXTMIN
 10
1.66313936498847
 20
3.065383940312763
 30
-0.0015258207003583
  9
$EXTMAX
 10
4.78890229818516
 20
9.201858544025874
 30
0.0000000349246037
  9
$LIMMIN
 10
0.0
 20
0.0
  9
$LIMMAX
 10
8.5
 20
11.0
  9
$ORTHOMODE
 70
     0
  9
$REGENMODE
 70
     1
  9
$FILLMODE
 70
     1
  9
$QTEXTMODE
 70
     0
  9
$MIRRTEXT
 70
     1
  9
$LTSCALE
 40
1.0
  9
$ATTMODE
 70
     1
  9
$TEXTSIZE
 40
0.2
  9
$TRACEWID
 40
0.05
  9
$TEXTSTYLE
  7
Standard
  9
$CLAYER
  8
0
  9
$CELTYPE
  6
ByLayer
  9
$CECOLOR
 62
   256
  9
$CELTSCALE
 40
1.0
  9
$DISPSILH
 70
     0
  9
$DIMSCALE
 40
1.0
  9
$DIMASZ
 40
0.1875
  9
$DIMEXO
 40
0.0625
  9
$DIMDLI
 40
0.38
  9
$DIMRND
 40
0.0
  9
$DIMDLE
 40
0.0
  9
$DIMEXE
 40
0.125
  9
$DIMTP
 40
0.0
  9
$DIMTM
 40
0.0
  9
$DIMTXT
 40
0.1388888888888889
  9
$DIMCEN
 40
0.09
  9
$DIMTSZ
 40
0.0
  9
$DIMTOL
 70
     0
  9
$DIMLIM
 70
     0
  9
$DIMTIH
 70
     1
  9
$DIMTOH
 70
     1
  9
$DIMSE1
 70
     0
  9
$DIMSE2
 70
     0
  9
$DIMTAD
 70
     0
  9
$DIMZIN
 70
     0
  9
$DIMBLK
  1

  9
$DIMASO
 70
     1
  9
$DIMSHO
 70
     1
  9
$DIMPOST
  1

  9
$DIMAPOST
  1

  9
$DIMALT
 70
     0
  9
$DIMALTD
 70
     2
  9
$DIMALTF
 40
25.4
  9
$DIMLFAC
 40
1.5
  9
$DIMTOFL
 70
     0
  9
$DIMTVP
 40
0.0
  9
$DIMTIX
 70
     0
  9
$DIMSOXD
 70
     0
  9
$DIMSAH
 70
     0
  9
$DIMBLK1
  1

  9
$DIMBLK2
  1

  9
$DIMSTYLE
  2
Standard
  9
$DIMCLRD
 70
     0
  9
$DIMCLRE
 70
     0
  9
$DIMCLRT
 70
     0
  9
$DIMTFAC
 40
1.0
  9
$DIMGAP
 40
0.06
  9
$DIMJUST
 70
     0
  9
$DIMSD1
 70
     0
  9
$DIMSD2
 70
     0
  9
$DIMTOLJ
 70
     1
  9
$DIMTZIN
 70
     0
  9
$DIMALTZ
 70
     0
  9
$DIMALTTZ
 70
     0
  9
$DIMUPT
 70
     0
  9
$DIMDEC
 70
     4
  9
$DIMTDEC
 70
     4
  9
$DIMALTU
 70
     2
  9
$DIMALTTD
 70
     2
  9
$DIMTXSTY
  7
Standard
  9
$DIMAUNIT
 70
     0
  9
$DIMADEC
 70
     0
  9
$DIMALTRND
 40
0.0
  9
$DIMAZIN
 70
     0
  9
$DIMDSEP
 70
    46
  9
$DIMATFIT
 70
     3
  9
$DIMFRAC
 70
     0
  9
$DIMLDRBLK
  1

  9
$DIMLUNIT
 70
     2
  9
$DIMLWD
 70
    -2
  9
$DIMLWE
 70
    -2
  9
$DIMTMOVE
 70
     0
  9
$LUNITS
 70
     2
  9
$LUPREC
 70
     2
  9
$SKETCHINC
 40
0.1
  9
$FILLETRAD
 40
0.5
  9
$AUNITS
 70
     0
  9
$AUPREC
 70
     0
  9
$MENU
  1
.
  9
$ELEVATION
 40
0.0
  9
$PELEVATION
 40
0.0
  9
$THICKNESS
 40
0.0
  9
$LIMCHECK
 70
     0
  9
$CHAMFERA
 40
0.5
  9
$CHAMFERB
 40
0.5
  9
$CHAMFERC
 40
1.0
  9
$CHAMFERD
 40
0.0
  9
$SKPOLY
 70
     0
  9
$TDCREATE
 40
2455391.587438148
  9
$TDUCREATE
 40
2455391.795771482
  9
$TDUPDATE
 40
2455391.589830544
  9
$TDUUPDATE
 40
2455391.798163878
  9
$TDINDWG
 40
0.0015842130
  9
$TDUSRTIMER
 40
0.0015842130
  9
$USRTIMER
 70
     1
  9
$ANGBASE
 50
0.0
  9
$ANGDIR
 70
     0
  9
$PDMODE
 70
     0
  9
$PDSIZE
 40
-1.0
  9
$PLINEWID
 40
0.0
  9
$SPLFRAME
 70
     0
  9
$SPLINETYPE
 70
     6
  9
$SPLINESEGS
 70
     8
  9
$HANDSEED
  5
73A
  9
$SURFTAB1
 70
     6
  9
$SURFTAB2
 70
     6
  9
$SURFTYPE
 70
     6
  9
$SURFU
 70
     6
  9
$SURFV
 70
     6
  9
$UCSBASE
  2

  9
$UCSNAME
  2

  9
$UCSORG
 10
0.0
 20
0.0
 30
0.0
  9
$UCSXDIR
 10
1.0
 20
0.0
 30
0.0
  9
$UCSYDIR
 10
0.0
 20
1.0
 30
0.0
  9
$UCSORTHOREF
  2

  9
$UCSORTHOVIEW
 70
     0
  9
$UCSORGTOP
 10
0.0
 20
0.0
 30
0.0
  9
$UCSORGBOTTOM
 10
0.0
 20
0.0
 30
0.0
  9
$UCSORGLEFT
 10
0.0
 20
0.0
 30
0.0
  9
$UCSORGRIGHT
 10
0.0
 20
0.0
 30
0.0
  9
$UCSORGFRONT
 10
0.0
 20
0.0
 30
0.0
  9
$UCSORGBACK
 10
0.0
 20
0.0
 30
0.0
  9
$PUCSBASE
  2

  9
$PUCSNAME
  2

  9
$PUCSORG
 10
0.0
 20
0.0
 30
0.0
  9
$PUCSXDIR
 10
1.0
 20
0.0
 30
0.0
  9
$PUCSYDIR
 10
0.0
 20
1.0
 30
0.0
  9
$PUCSORTHOREF
  2

  9
$PUCSORTHOVIEW
 70
     0
  9
$PUCSORGTOP
 10
0.0
 20
0.0
 30
0.0
  9
$PUCSORGBOTTOM
 10
0.0
 20
0.0
 30
0.0
  9
$PUCSORGLEFT
 10
0.0
 20
0.0
 30
0.0
  9
$PUCSORGRIGHT
 10
0.0
 20
0.0
 30
0.0
  9
$PUCSORGFRONT
 10
0.0
 20
0.0
 30
0.0
  9
$PUCSORGBACK
 10
0.0
 20
0.0
 30
0.0
  9
$USERI1
 70
     0
  9
$USERI2
 70
     0
  9
$USERI3
 70
     0
  9
$USERI4
 70
     0
  9
$USERI5
 70
     0
  9
$USERR1
 40
0.0
  9
$USERR2
 40
0.0
  9
$USERR3
 40
0.0
  9
$USERR4
 40
0.0
  9
$USERR5
 40
0.0
  9
$WORLDVIEW
 70
     1
  9
$SHADEDGE
 70
     3
  9
$SHADEDIF
 70
    70
  9
$TILEMODE
 70
     1
  9
$MAXACTVP
 70
    64
  9
$PINSBASE
 10
0.0
 20
0.0
 30
0.0
  9
$PLIMCHECK
 70
     0
  9
$PEXTMIN
 10
1.000000000000000E+20
 20
1.000000000000000E+20
 30
1.000000000000000E+20
  9
$PEXTMAX
 10
-1.000000000000000E+20
 20
-1.000000000000000E+20
 30
-1.000000000000000E+20
  9
$PLIMMIN
 10
0.0
 20
0.0
  9
$PLIMMAX
 10
12.0
 20
9.0
  9
$UNITMODE
 70
     0
  9
$VISRETAIN
 70
     1
  9
$PLINEGEN
 70
     0
  9
$PSLTSCALE
 70
     1
  9
$TREEDEPTH
 70
  3020
  9
$CMLSTYLE
  2
Standard
  9
$CMLJUST
 70
     0
  9
$CMLSCALE
 40
1.0
  9
$PROXYGRAPHICS
 70
     1
  9
$MEASUREMENT
 70
     0
  9
$CELWEIGHT
370
    -1
  9
$ENDCAPS
280
     0
  9
$JOINSTYLE
280
     0
  9
$LWDISPLAY
290
     1
  9
$INSUNITS
 70
     1
  9
$HYPERLINKBASE
  1

  9
$STYLESHEET
  1

  9
$XEDIT
290
     1
  9
$CEPSNTYPE
380
     0
  9
$PSTYLEMODE
290
     1
  9
$FINGERPRINTGUID
  2
{D355D815-3986-40CB-8D00-3FD063899146}
  9
$VERSIONGUID
  2
{7B8E6EB3-E8AF-41ED-89AF-99DAFA58467A}
  9
$EXTNAMES
290
     1
  9
$PSVPSCALE
 40
0.0
  9
$OLESTARTUP
290
     0
  0
ENDSEC
  0
SECTION
  2
CLASSES
  0
CLASS
  1
ACDBDICTIONARYWDFLT
  2
AcDbDictionaryWithDefault
  3
ObjectDBX Classes
 90
        0
280
     0
281
     0
  0
CLASS
  1
VISUALSTYLE
  2
AcDbVisualStyle
  3
ObjectDBX Classes
 90
     4095
280
     0
281
     0
  0
CLASS
  1
SCALE
  2
AcDbScale
  3
ObjectDBX Classes
 90
     1153
280
     0
281
     0
  0
CLASS
  1
DICTIONARYVAR
  2
AcDbDictionaryVar
  3
ObjectDBX Classes
 90
        0
280
     0
281
     0
  0
CLASS
  1
ACDBPLACEHOLDER
  2
AcDbPlaceHolder
  3
ObjectDBX Classes
 90
        0
280
     0
281
     0
  0
CLASS
  1
LAYOUT
  2
AcDbLayout
  3
ObjectDBX Classes
 90
        0
280
     0
281
     0
  0
CLASS
  1
MATERIAL
  2
AcDbMaterial
  3
ObjectDBX Classes
 90
     1153
280
     0
281
     0
  0
CLASS
  1
TABLESTYLE
  2
AcDbTableStyle
  3
ObjectDBX Classes
 90
     4095
280
     0
281
     0
  0
CLASS
  1
MLEADERSTYLE
  2
AcDbMLeaderStyle
  3
ACDB_MLEADERSTYLE_CLASS
 90
     4095
280
     0
281
     0
  0
CLASS
  1
CELLSTYLEMAP
  2
AcDbCellStyleMap
  3
ObjectDBX Classes
 90
     1152
280
     0
281
     0
  0
ENDSEC
  0
SECTION
  2
TABLES
  0
TABLE
  2
VPORT
  5
8
330
0
100
AcDbSymbolTable
 70
     1
  0
VPORT
  5
29
330
8
100
AcDbSymbolTableRecord
100
AcDbViewportTableRecord
  2
*Active
 70
     0
 10
0.0
 20
0.0
 11
1.0
 21
1.0
 12
3.571325627190349
 22
6.353689547260807
 13
0.0
 23
0.0
 14
0.5
 24
0.5
 15
0.5
 25
0.5
 16
0.0
 26
0.0
 36
1.0
 17
0.0
 27
0.0
 37
0.0
 40
6.936606421079817
 41
1.427771556550951
 42
50.0
 43
0.0
 44
0.0
 50
0.0
 51
0.0
 71
     0
 72
  2000
 73
     1
 74
     2
 75
     0
 76
     0
 77
     0
 78
     0
281
     0
 65
     1
110
0.0
120
0.0
130
0.0
111
1.0
121
0.0
131
0.0
112
0.0
122
1.0
132
0.0
 79
     0
146
0.0
  0
ENDTAB
  0
TABLE
  2
LTYPE
  5
5
330
0
100
AcDbSymbolTable
 70
     6
  0
LTYPE
  5
14
330
5
100
AcDbSymbolTableRecord
100
AcDbLinetypeTableRecord
  2
ByBlock
 70
     0
  3

 72
    65
 73
     0
 40
0.0
  0
LTYPE
  5
15
330
5
100
AcDbSymbolTableRecord
100
AcDbLinetypeTableRecord
  2
ByLayer
 70
     0
  3

 72
    65
 73
     0
 40
0.0
  0
LTYPE
  5
16
330
5
100
AcDbSymbolTableRecord
100
AcDbLinetypeTableRecord
  2
Continuous
 70
     0
  3
Solid line
 72
    65
 73
     0
 40
0.0
  0
LTYPE
  5
5D
330
5
100
AcDbSymbolTableRecord
100
AcDbLinetypeTableRecord
  2
HIDDEN
 70
     0
  3
Hidden __ __ __ __ __ __ __ __ __ __ __ __ __ __
 72
    65
 73
     2
 40
0.075
 49
0.05
 74
     0
 49
-0.025
 74
     0
  0
LTYPE
  5
5E
330
5
100
AcDbSymbolTableRecord
100
AcDbLinetypeTableRecord
  2
PHANTOM
 70
     0
  3
Phantom ______  __  __  ______  __  __  ______
 72
    65
 73
     6
 40
0.5
 49
0.25
 74
     0
 49
-0.05
 74
     0
 49
0.05
 74
     0
 49
-0.05
 74
     0
 49
0.05
 74
     0
 49
-0.05
 74
     0
  0
LTYPE
  5
5F
330
5
100
AcDbSymbolTableRecord
100
AcDbLinetypeTableRecord
  2
CENTER
 70
     0
  3
Center ____ _ ____ _ ____ _ ____ _ ____ _ ____
 72
    65
 73
     4
 40
0.4
 49
0.25
 74
     0
 49
-0.05
 74
     0
 49
0.05
 74
     0
 49
-0.05
 74
     0
  0
LTYPE
  5
60
330
5
100
AcDbSymbolTableRecord
100
AcDbLinetypeTableRecord
  2
CENTERX2
 70
     0
  3
Center (2x) ________  __  ________  __  _____
 72
    65
 73
     4
 40
0.8
 49
0.5
 74
     0
 49
-0.1
 74
     0
 49
0.1
 74
     0
 49
-0.1
 74
     0
  0
LTYPE
  5
61
330
5
100
AcDbSymbolTableRecord
100
AcDbLinetypeTableRecord
  2
DOT2
 70
     0
  3
Dot (.5x) ........................................
 72
    65
 73
     2
 40
0.025
 49
0.0
 74
     0
 49
-0.025
 74
     0
  0
ENDTAB
  0
TABLE
  2
LAYER
  5
2
330
0
100
AcDbSymbolTable
 70
     2
  0
LAYER
  5
10
102
{ACAD_XDICTIONARY
360
723
102
}
330
2
100
AcDbSymbolTableRecord
100
AcDbLayerTableRecord
  2
0
 70
     0
 62
     7
  6
Continuous
370
    -3
390
F
  0
LAYER
  5
62
102
{ACAD_XDICTIONARY
360
725
102
}
330
2
100
AcDbSymbolTableRecord
100
AcDbLayerTableRecord
  2
WALL
 70
     0
 62
     7
  6
Continuous
370
    40
390
F
  0
ENDTAB
  0
TABLE
  2
STYLE
  5
3
330
0
100
AcDbSymbolTable
 70
     3
  0
STYLE
  5
11
330
3
100
AcDbSymbolTableRecord
100
AcDbTextStyleTableRecord
  2
Standard
 70
     0
 40
0.0
 41
1.0
 50
0.0
 71
     0
 42
0.2
  3
txt
  4

  0
STYLE
  5
6D
330
3
100
AcDbSymbolTableRecord
100
AcDbTextStyleTableRecord
  2
SLDTEXTSTYLE0
 70
     0
 40
0.0
 41
0.605
 50
0.0
 71
     0
 42
0.2
  3
TXT
  4

  0
STYLE
  5
80
330
3
100
AcDbSymbolTableRecord
100
AcDbTextStyleTableRecord
  2
SLDTEXTSTYLE1
 70
     0
 40
0.0
 41
0.7
 50
0.0
 71
     0
 42
0.2
  3
TXT
  4

  0
ENDTAB
  0
TABLE
  2
VIEW
  5
6
330
0
100
AcDbSymbolTable
 70
     0
  0
ENDTAB
  0
TABLE
  2
UCS
  5
7
330
0
100
AcDbSymbolTable
 70
     0
  0
ENDTAB
  0
TABLE
  2
APPID
  5
9
330
0
100
AcDbSymbolTable
 70
     2
  0
APPID
  5
12
330
9
100
AcDbSymbolTableRecord
100
AcDbRegAppTableRecord
  2
ACAD
 70
     0
  0
APPID
  5
720
330
9
100
AcDbSymbolTableRecord
100
AcDbRegAppTableRecord
  2
ACAD_MLEADERVER
 70
     0
  0
ENDTAB
  0
TABLE
  2
DIMSTYLE
  5
A
330
0
100
AcDbSymbolTable
 70
     2
100
AcDbDimStyleTable
 71
     0
  0
DIMSTYLE
105
27
330
A
100
AcDbSymbolTableRecord
100
AcDbDimStyleTableRecord
  2
Standard
 70
     0
340
11
  0
DIMSTYLE
105
350
330
A
100
AcDbSymbolTableRecord
100
AcDbDimStyleTableRecord
  2
SLDDIMSTYLE0
 70
     0
 41
0.1875
 44
0.0
 45
0.000000001
 78
    12
140
0.1011149088541666
144
2.0
147
0.0252787272135417
173
     1
271
     2
272
     3
284
    12
340
6D
  0
ENDTAB
  0
TABLE
  2
BLOCK_RECORD
  5
1
330
0
100
AcDbSymbolTable
 70
     9
  0
BLOCK_RECORD
  5
1F
330
1
100
AcDbSymbolTableRecord
100
AcDbBlockTableRecord
  2
*Model_Space
340
22
  0
BLOCK_RECORD
  5
1B
330
1
100
AcDbSymbolTableRecord
100
AcDbBlockTableRecord
  2
*Paper_Space
340
1E
  0
BLOCK_RECORD
  5
23
330
1
100
AcDbSymbolTableRecord
100
AcDbBlockTableRecord
  2
*Paper_Space0
340
26
  0
BLOCK_RECORD
  5
71
330
1
100
AcDbSymbolTableRecord
100
AcDbBlockTableRecord
  2
SW_NOTE_0
340
0
  0
BLOCK_RECORD
  5
79
330
1
100
AcDbSymbolTableRecord
100
AcDbBlockTableRecord
  2
SW_NOTE_1
340
0
  0
BLOCK_RECORD
  5
85
330
1
100
AcDbSymbolTableRecord
100
AcDbBlockTableRecord
  2
SW_NOTE_2
340
0
  0
BLOCK_RECORD
  5
8F
330
1
100
AcDbSymbolTableRecord
100
AcDbBlockTableRecord
  2
SW_TABLEANNOTATION_0
340
0
  0
BLOCK_RECORD
  5
351
330
1
100
AcDbSymbolTableRecord
100
AcDbBlockTableRecord
  2
*D5
340
0
  0
BLOCK_RECORD
  5
35D
330
1
100
AcDbSymbolTableRecord
100
AcDbBlockTableRecord
  2
*D6
340
0
  0
BLOCK_RECORD
  5
368
330
1
100
AcDbSymbolTableRecord
100
AcDbBlockTableRecord
  2
*D7
340
0
  0
BLOCK_RECORD
  5
374
330
1
100
AcDbSymbolTableRecord
100
AcDbBlockTableRecord
  2
*D8
340
0
  0
ENDTAB
  0
ENDSEC
  0
SECTION
  2
BLOCKS
  0
BLOCK
  5
20
330
1F
100
AcDbEntity
  8
0
100
AcDbBlockBegin
  2
*Model_Space
 70
     0
 10
0.0
 20
0.0
 30
0.0
  3
*Model_Space
  1

  0
ENDBLK
  5
21
330
1F
100
AcDbEntity
  8
0
100
AcDbBlockEnd
  0
BLOCK
  5
1C
330
1B
100
AcDbEntity
 67
     1
  8
0
100
AcDbBlockBegin
  2
*Paper_Space
 70
     0
 10
0.0
 20
0.0
 30
0.0
  3
*Paper_Space
  1

  0
ENDBLK
  5
1D
330
1B
100
AcDbEntity
 67
     1
  8
0
100
AcDbBlockEnd
  0
BLOCK
  5
24
330
23
100
AcDbEntity
 67
     1
  8
0
100
AcDbBlockBegin
  2
*Paper_Space0
 70
     0
 10
0.0
 20
0.0
 30
0.0
  3
*Paper_Space0
  1

  0
ENDBLK
  5
25
330
23
100
AcDbEntity
 67
     1
  8
0
100
AcDbBlockEnd
  0
BLOCK
  5
72
330
71
100
AcDbEntity
  8
0
100
AcDbBlockBegin
  2
SW_NOTE_0
 70
     0
 10
0.0
 20
0.0
 30
0.0
  3
SW_NOTE_0
  1

  0
MTEXT
  5
74
330
71
100
AcDbEntity
  8
0
  6
Continuous
 62
     0
370
     0
100
AcDbMText
 10
0.0
 20
0.1342778895595789
 30
0.0
 40
0.1041666666666667
 41
0.0
 71
     1
 72
     1
  1
JOSAM SERIES 6AD ADJUSTABLE SATIN FINISH NIKALOY ROUND 
  7
SLDTEXTSTYLE0
 73
     1
 44
1.0
1001
ACAD
1000
MTEXTBEGIN
1070
    73
1070
     1
1070
    44
1040
1.0
1070
    74
1070
     0
1000
MTEXTEND
  0
MTEXT
  5
75
330
71
100
AcDbEntity
  8
0
  6
Continuous
 62
     0
370
     0
100
AcDbMText
 10
0.0
 20
-0.0046109976508109
 30
0.0
 40
0.1041666666666667
 41
0.0
 71
     1
 72
     1
  1
SUPER-FLO STRAINER THREADED WITH JOSAM ADJUSTABLE 
  7
SLDTEXTSTYLE0
 73
     1
 44
1.0
1001
ACAD
1000
MTEXTBEGIN
1070
    73
1070
     1
1070
    44
1040
1.0
1070
    74
1070
     0
1000
MTEXTEND
  0
MTEXT
  5
76
330
71
100
AcDbEntity
  8
0
  6
Continuous
 62
     0
370
     0
100
AcDbMText
 10
0.0
 20
-0.1434998848612006
 30
0.0
 40
0.1041666666666667
 41
0.0
 71
     1
 72
     1
  1
STRAINER THREAD.
  7
SLDTEXTSTYLE0
 73
     1
 44
1.0
1001
ACAD
1000
MTEXTBEGIN
1070
    73
1070
     1
1070
    44
1040
1.0
1070
    74
1070
     0
1000
MTEXTEND
  0
ENDBLK
  5
73
330
71
100
AcDbEntity
  8
0
100
AcDbBlockEnd
  0
BLOCK
  5
7A
330
79
100
AcDbEntity
  8
0
100
AcDbBlockBegin
  2
SW_NOTE_1
 70
     0
 10
0.0
 20
0.0
 30
0.0
  3
SW_NOTE_1
  1

  0
MTEXT
  5
7C
330
79
100
AcDbEntity
  8
WALL
 62
     0
100
AcDbMText
 10
0.0
 20
0.13427788955958
 30
0.0
 40
0.1041666666666667
 41
0.0
 71
     1
 72
     1
  1
SLOT WIDTH 1/4"
  7
SLDTEXTSTYLE0
 73
     1
 44
1.0
1001
ACAD
1000
MTEXTBEGIN
1070
    73
1070
     1
1070
    44
1040
1.0
1070
    74
1070
     0
1000
MTEXTEND
  0
MTEXT
  5
7D
330
79
100
AcDbEntity
  8
WALL
 62
     0
100
AcDbMText
 10
0.0
 20
-0.050965158830251
 30
0.0
 40
0.1041666666666667
 41
0.0
 71
     1
 72
     1
  1
FREE AREA = 10.4 in
  7
SLDTEXTSTYLE0
 73
     1
 44
1.0
1001
ACAD
1000
MTEXTBEGIN
1070
    73
1070
     1
1070
    44
1040
1.0
1070
    74
1070
     0
1000
MTEXTEND
  0
MTEXT
  5
7E
330
79
100
AcDbEntity
  8
WALL
 62
     0
100
AcDbMText
 10
1.361882680748391
 20
-0.0027666008821261
 30
0.0
 40
0.0625
 41
0.0
 71
     1
 72
     1
  1
2
  7
SLDTEXTSTYLE0
 73
     1
 44
1.0
1001
ACAD
1000
MTEXTBEGIN
1070
    73
1070
     1
1070
    44
1040
1.0
1070
    74
1070
     0
1000
MTEXTEND
  0
ENDBLK
  5
7B
330
79
100
AcDbEntity
  8
0
100
AcDbBlockEnd
  0
BLOCK
  5
86
330
85
100
AcDbEntity
  8
0
100
AcDbBlockBegin
  2
SW_NOTE_2
 70
     0
 10
0.0
 20
0.0
 30
0.0
  3
SW_NOTE_2
  1

  0
MTEXT
  5
88
330
85
100
AcDbEntity
  8
0
  6
Continuous
 62
     0
370
     0
100
AcDbMText
 10
0.0
 20
0.1007084171696848
 30
0.0
 40
0.078125
 41
0.0
 71
     1
 72
     1
  1
DIMENSIONS ARE SUBJECT TO MANUFACTURERS
  7
SLDTEXTSTYLE0
 73
     1
 44
1.0
1001
ACAD
1000
MTEXTBEGIN
1070
    73
1070
     1
1070
    44
1040
1.0
1070
    74
1070
     0
1000
MTEXTEND
  0
MTEXT
  5
89
330
85
100
AcDbEntity
  8
0
  6
Continuous
 62
     0
370
     0
100
AcDbMText
 10
0.0785048464386482
 20
-0.0086665826543172
 30
0.0
 40
0.078125
 41
0.0
 71
     1
 72
     1
  1
TOLERANCES AND CHANGE WITHOUT NOTICE.
  7
SLDTEXTSTYLE0
 73
     1
 44
1.0
1001
ACAD
1000
MTEXTBEGIN
1070
    73
1070
     1
1070
    44
1040
1.0
1070
    74
1070
     0
1000
MTEXTEND
  0
MTEXT
  5
8A
330
85
100
AcDbEntity
  8
0
  6
Continuous
 62
     0
370
     0
100
AcDbMText
 10
0.1749607521717943
 20
-0.1180415824783193
 30
0.0
 40
0.078125
 41
0.0
 71
     1
 72
     1
  1
WE CAN ASSUME NO RESPONSIBILITY FOR
  7
SLDTEXTSTYLE0
 73
     1
 44
1.0
1001
ACAD
1000
MTEXTBEGIN
1070
    73
1070
     1
1070
    44
1040
1.0
1070
    74
1070
     0
1000
MTEXTEND
  0
MTEXT
  5
8B
330
85
100
AcDbEntity
  8
0
  6
Continuous
 62
     0
370
     0
100
AcDbMText
 10
0.3091633085190781
 20
-0.2274165823023213
 30
0.0
 40
0.078125
 41
0.0
 71
     1
 72
     1
  1
USE OF SUPERSEDED OR VOID DATA.
  7
SLDTEXTSTYLE0
 73
     1
 44
1.0
1001
ACAD
1000
MTEXTBEGIN
1070
    73
1070
     1
1070
    44
1040
1.0
1070
    74
1070
     0
1000
MTEXTEND
  0
ENDBLK
  5
87
330
85
100
AcDbEntity
  8
0
100
AcDbBlockEnd
  0
BLOCK
  5
90
330
8F
100
AcDbEntity
  8
0
100
AcDbBlockBegin
  2
SW_TABLEANNOTATION_0
 70
     0
 10
0.0
 20
0.0
 30
0.0
  3
SW_TABLEANNOTATION_0
  1

  0
LINE
  5
92
330
8F
100
AcDbEntity
  8
WALL
 62
     0
100
AcDbLine
 10
0.0
 20
0.0
 30
0.0
 11
0.0
 21
-0.4758721044162133
 31
0.0
  0
LINE
  5
93
330
8F
100
AcDbEntity
  8
WALL
 62
     0
100
AcDbLine
 10
0.0
 20
-0.4758721044162133
 30
0.0
 11
7.996616680447469
 21
-0.4758721044162133
 31
0.0
  0
LINE
  5
94
330
8F
100
AcDbEntity
  8
WALL
 62
     0
100
AcDbLine
 10
7.996616680447469
 20
-0.4758721044162133
 30
0.0
 11
7.996616680447469
 21
0.0
 31
0.0
  0
LINE
  5
95
330
8F
100
AcDbEntity
  8
WALL
 62
     0
100
AcDbLine
 10
7.996616680447469
 20
0.0
 30
0.0
 11
0.0
 21
0.0
 31
0.0
  0
LINE
  5
96
330
8F
100
AcDbEntity
  8
WALL
 62
     0
100
AcDbLine
 10
0.2466440115756924
 20
0.0
 30
0.0
 11
0.2466440115756924
 21
-0.4758721044162133
 31
0.0
  0
LINE
  5
97
330
8F
100
AcDbEntity
  8
WALL
 62
     0
100
AcDbLine
 10
0.3855329004645815
 20
0.0
 30
0.0
 11
0.3855329004645815
 21
-0.4758721044162133
 31
0.0
  0
LINE
  5
98
330
8F
100
AcDbEntity
  8
WALL
 62
     0
100
AcDbLine
 10
0.953533402175269
 20
0.0
 30
0.0
 11
0.953533402175269
 21
-0.4758721044162133
 31
0.0
  0
LINE
  5
99
330
8F
100
AcDbEntity
  8
WALL
 62
     0
100
AcDbLine
 10
4.003437469059114
 20
0.0
 30
0.0
 11
4.003437469059114
 21
-0.4758721044162133
 31
0.0
  0
LINE
  5
9A
330
8F
100
AcDbEntity
  8
WALL
 62
     0
100
AcDbLine
 10
4.228441343502811
 20
0.0
 30
0.0
 11
4.228441343502811
 21
-0.4758721044162133
 31
0.0
  0
LINE
  5
9B
330
8F
100
AcDbEntity
  8
WALL
 62
     0
100
AcDbLine
 10
4.3673302323917
 20
0.0
 30
0.0
 11
4.3673302323917
 21
-0.4758721044162133
 31
0.0
  0
LINE
  5
9C
330
8F
100
AcDbEntity
  8
WALL
 62
     0
100
AcDbLine
 10
4.858960705011496
 20
0.0
 30
0.0
 11
4.858960705011496
 21
-0.4758721044162133
 31
0.0
  0
LINE
  5
9D
330
8F
100
AcDbEntity
  8
WALL
 62
     0
100
AcDbLine
 10
0.0000000000000001
 20
-0.2583250756580535
 30
0.0
 11
7.996616680447469
 21
-0.2583250756580535
 31
0.0
  0
MTEXT
  5
9E
330
8F
100
AcDbEntity
  8
WALL
 62
     0
100
AcDbMText
 10
0.6201504363765956
 20
-0.08754547885046
 30
-0.0000000000000643
 40
0.0833333333333333
 41
0.0
 71
     1
 72
     1
  1
-2
  7
SLDTEXTSTYLE0
 73
     1
 44
1.0
1001
ACAD
1000
MTEXTBEGIN
1070
    73
1070
     1
1070
    44
1040
1.0
1070
    74
1070
     0
1000
MTEXTEND
  0
MTEXT
  5
9F
330
8F
100
AcDbEntity
  8
WALL
 62
     0
100
AcDbMText
 10
0.9732184415453478
 20
-0.08754547885046
 30
-0.0000000000000643
 40
0.0833333333333333
 41
0.0
 71
     1
 72
     1
  1
 SATIN FINISH BRONZE
  7
SLDTEXTSTYLE0
 73
     1
 44
1.0
1001
ACAD
1000
MTEXTBEGIN
1070
    73
1070
     1
1070
    44
1040
1.0
1070
    74
1070
     0
1000
MTEXTEND
  0
MTEXT
  5
A0
330
8F
100
AcDbEntity
  8
WALL
 62
     0
100
AcDbMText
 10
4.520552874172485
 20
-0.08754547885046
 30
-0.0000000000000643
 40
0.0833333333333333
 41
0.0
 71
     1
 72
     1
  1
-VP
  7
SLDTEXTSTYLE0
 73
     1
 44
1.0
1001
ACAD
1000
MTEXTBEGIN
1070
    73
1070
     1
1070
    44
1040
1.0
1070
    74
1070
     0
1000
MTEXTEND
  0
MTEXT
  5
A1
330
8F
100
AcDbEntity
  8
WALL
 62
     0
100
AcDbMText
 10
4.878645744381575
 20
-0.08754547885046
 30
-0.0000000000000643
 40
0.0833333333333333
 41
0.0
 71
     1
 72
     1
  1
 SECURED GRATE, VANDAL-PROOF SCREWS
  7
SLDTEXTSTYLE0
 73
     1
 44
1.0
1001
ACAD
1000
MTEXTBEGIN
1070
    73
1070
     1
1070
    44
1040
1.0
1070
    74
1070
     0
1000
MTEXTEND
  0
ENDBLK
  5
91
330
8F
100
AcDbEntity
  8
0
100
AcDbBlockEnd
  0
BLOCK
  5
352
330
351
100
AcDbEntity
  8
0
100
AcDbBlockBegin
  2
*D5
 70
     1
 10
0.0
 20
0.0
 30
0.0
  3
*D5
  1

  0
SOLID
  5
354
330
351
100
AcDbEntity
  8
WALL
100
AcDbTrace
 10
1.663472959693446
 20
5.027560498333218
 30
0.0
 11
1.850972959693446
 21
4.996310498333218
 31
0.0
 12
1.850972959693446
 22
5.058810498333218
 32
0.0
 13
1.850972959693446
 23
5.058810498333218
 33
0.0
  0
SOLID
  5
355
330
351
100
AcDbEntity
  8
WALL
100
AcDbTrace
 10
4.788472959693447
 20
5.027560498333224
 30
0.0
 11
4.600972959693447
 21
5.058810498333224
 31
0.0
 12
4.600972959693447
 22
4.996310498333224
 32
0.0
 13
4.600972959693447
 23
4.996310498333224
 33
0.0
  0
LINE
  5
356
330
351
100
AcDbEntity
  8
WALL
100
AcDbLine
 10
1.663472959693448
 20
4.230262761849631
 30
0.0
 11
1.663472959693446
 21
5.152560498333218
 31
0.0
  0
LINE
  5
357
330
351
100
AcDbEntity
  8
WALL
100
AcDbLine
 10
4.788472959693449
 20
4.23026276184963
 30
0.0
 11
4.788472959693447
 21
5.152560498333225
 31
0.0
  0
LINE
  5
358
330
351
100
AcDbEntity
  8
WALL
100
AcDbLine
 10
1.663472959693446
 20
5.027560498333218
 30
0.0
 11
2.910783800131936
 21
5.02756049833322
 31
0.0
  0
LINE
  5
359
330
351
100
AcDbEntity
  8
WALL
100
AcDbLine
 10
4.788472959693447
 20
5.027560498333224
 30
0.0
 11
3.541162119254957
 21
5.027560498333222
 31
0.0
  0
MTEXT
  5
35A
330
351
100
AcDbEntity
  8
WALL
100
AcDbMText
 10
2.973283800131936
 20
5.084214025065231
 30
-0.0000000000000353
 40
0.1041666666666667
 41
0.0
 71
     1
 72
     1
  1
%%c
  7
SLDTEXTSTYLE0
 73
     1
 44
1.0
1001
ACAD
1000
MTEXTBEGIN
1070
    73
1070
     1
1070
    44
1040
1.0
1070
    74
1070
     0
1000
MTEXTEND
  0
MTEXT
  5
35B
330
351
100
AcDbEntity
  8
WALL
100
AcDbMText
 10
3.120742752628891
 20
5.084214034231791
 30
-0.0000000000000353
 40
0.1041666666666667
 41
0.0
 71
     1
 72
     1
  1
6 1/4"
  7
SLDTEXTSTYLE0
 73
     1
 44
1.0
1001
ACAD
1000
MTEXTBEGIN
1070
    73
1070
     1
1070
    44
1040
1.0
1070
    74
1070
     0
1000
MTEXTEND
  0
ENDBLK
  5
353
330
351
100
AcDbEntity
  8
0
100
AcDbBlockEnd
  0
BLOCK
  5
35E
330
35D
100
AcDbEntity
  8
0
100
AcDbBlockBegin
  2
*D6
 70
     1
 10
0.0
 20
0.0
 30
0.0
  3
*D6
  1

  0
SOLID
  5
360
330
35D
100
AcDbEntity
  8
WALL
100
AcDbTrace
 10
5.712511065370108
 20
3.06620026184963
 30
0.0
 11
5.743761065370108
 21
3.25370026184963
 31
0.0
 12
5.681261065370108
 22
3.25370026184963
 32
0.0
 13
5.681261065370108
 23
3.25370026184963
 33
0.0
  0
SOLID
  5
361
330
35D
100
AcDbEntity
  8
WALL
100
AcDbTrace
 10
5.712511065370108
 20
4.16776276184963
 30
0.0
 11
5.681261065370108
 21
3.98026276184963
 31
0.0
 12
5.743761065370108
 22
3.98026276184963
 32
0.0
 13
5.743761065370108
 23
3.98026276184963
 33
0.0
  0
LINE
  5
362
330
35D
100
AcDbEntity
  8
WALL
100
AcDbLine
 10
4.222150986975366
 20
3.06620026184963
 30
0.0
 11
5.837511065370108
 21
3.06620026184963
 31
0.0
  0
LINE
  5
363
330
35D
100
AcDbEntity
  8
WALL
100
AcDbLine
 10
4.850972959693449
 20
4.16776276184963
 30
0.0
 11
5.837511065370108
 21
4.16776276184963
 31
0.0
  0
LINE
  5
364
330
35D
100
AcDbEntity
  8
WALL
100
AcDbLine
 10
5.712511065370108
 20
3.06620026184963
 30
0.0
 11
5.712511065370108
 21
3.539357151313697
 31
0.0
  0
LINE
  5
365
330
35D
100
AcDbEntity
  8
WALL
100
AcDbLine
 10
5.712511065370108
 20
4.16776276184963
 30
0.0
 11
5.712511065370108
 21
3.694605872385561
 31
0.0
  0
MTEXT
  5
366
330
35D
100
AcDbEntity
  8
WALL
100
AcDbMText
 10
5.533551382057074
 20
3.6736350477482
 30
-0.0000000000000255
 40
0.1041666666666667
 41
0.0
 71
     1
 72
     1
  1
2 1/4"
  7
SLDTEXTSTYLE0
 73
     1
 44
1.0
1001
ACAD
1000
MTEXTBEGIN
1070
    73
1070
     1
1070
    44
1040
1.0
1070
    74
1070
     0
1000
MTEXTEND
  0
ENDBLK
  5
35F
330
35D
100
AcDbEntity
  8
0
100
AcDbBlockEnd
  0
BLOCK
  5
369
330
368
100
AcDbEntity
  8
0
100
AcDbBlockBegin
  2
*D7
 70
     1
 10
0.0
 20
0.0
 30
0.0
  3
*D7
  1

  0
SOLID
  5
36B
330
368
100
AcDbEntity
  8
WALL
100
AcDbTrace
 10
1.944722959693448
 20
4.698408245437565
 30
0.0
 11
2.132222959693448
 21
4.667158245437565
 31
0.0
 12
2.132222959693448
 22
4.729658245437565
 32
0.0
 13
2.132222959693448
 23
4.729658245437565
 33
0.0
  0
SOLID
  5
36C
330
368
100
AcDbEntity
  8
WALL
100
AcDbTrace
 10
4.507222959693449
 20
4.698408245437565
 30
0.0
 11
4.319722959693449
 21
4.729658245437565
 31
0.0
 12
4.319722959693449
 22
4.667158245437565
 32
0.0
 13
4.319722959693449
 23
4.667158245437565
 33
0.0
  0
LINE
  5
36D
330
368
100
AcDbEntity
  8
WALL
100
AcDbLine
 10
1.944722959693448
 20
4.218233007977025
 30
0.0
 11
1.944722959693448
 21
4.823408245437565
 31
0.0
  0
LINE
  5
36E
330
368
100
AcDbEntity
  8
WALL
100
AcDbLine
 10
4.507222959693449
 20
4.218233007977025
 30
0.0
 11
4.507222959693449
 21
4.823408245437565
 31
0.0
  0
LINE
  5
36F
330
368
100
AcDbEntity
  8
WALL
100
AcDbLine
 10
1.944722959693448
 20
4.698408245437565
 30
0.0
 11
2.910783800131937
 21
4.698408245437565
 31
0.0
  0
LINE
  5
370
330
368
100
AcDbEntity
  8
WALL
100
AcDbLine
 10
4.507222959693449
 20
4.698408245437565
 30
0.0
 11
3.541162119254958
 21
4.698408245437565
 31
0.0
  0
MTEXT
  5
371
330
368
100
AcDbEntity
  8
WALL
100
AcDbMText
 10
2.973283800131937
 20
4.755061772169575
 30
-0.000000000000033
 40
0.1041666666666667
 41
0.0
 71
     1
 72
     1
  1
%%c
  7
SLDTEXTSTYLE0
 73
     1
 44
1.0
1001
ACAD
1000
MTEXTBEGIN
1070
    73
1070
     1
1070
    44
1040
1.0
1070
    74
1070
     0
1000
MTEXTEND
  0
MTEXT
  5
372
330
368
100
AcDbEntity
  8
WALL
100
AcDbMText
 10
3.120742752628892
 20
4.755061781336135
 30
-0.000000000000033
 40
0.1041666666666667
 41
0.0
 71
     1
 72
     1
  1
5 1/8"
  7
SLDTEXTSTYLE0
 73
     1
 44
1.0
1001
ACAD
1000
MTEXTBEGIN
1070
    73
1070
     1
1070
    44
1040
1.0
1070
    74
1070
     0
1000
MTEXTEND
  0
ENDBLK
  5
36A
330
368
100
AcDbEntity
  8
0
100
AcDbBlockEnd
  0
BLOCK
  5
375
330
374
100
AcDbEntity
  8
0
100
AcDbBlockBegin
  2
*D8
 70
     1
 10
0.0
 20
0.0
 30
0.0
  3
*D8
  1

  0
SOLID
  5
377
330
374
100
AcDbEntity
  8
WALL
100
AcDbTrace
 10
2.045817958966328
 20
3.06620026184963
 30
0.0
 11
2.077067958966328
 21
3.25370026184963
 31
0.0
 12
2.014567958966328
 22
3.25370026184963
 32
0.0
 13
2.014567958966328
 23
3.25370026184963
 33
0.0
  0
SOLID
  5
378
330
374
100
AcDbEntity
  8
WALL
100
AcDbTrace
 10
2.045817958966328
 20
3.538772234567712
 30
0.0
 11
2.014567958966328
 21
3.351272234567712
 31
0.0
 12
2.077067958966328
 22
3.351272234567712
 32
0.0
 13
2.077067958966328
 23
3.351272234567712
 33
0.0
  0
LINE
  5
379
330
374
100
AcDbEntity
  8
WALL
100
AcDbLine
 10
2.229794932411532
 20
3.06620026184963
 30
0.0
 11
1.920817958966328
 21
3.06620026184963
 31
0.0
  0
LINE
  5
37A
330
374
100
AcDbEntity
  8
WALL
100
AcDbLine
 10
2.225972959693448
 20
3.538772234567712
 30
0.0
 11
1.920817958966328
 21
3.538772234567712
 31
0.0
  0
LINE
  5
37B
330
374
100
AcDbEntity
  8
WALL
100
AcDbLine
 10
1.920817958966328
 20
2.706922707074214
 30
0.0
 11
2.045817958966328
 21
2.706922707074214
 31
0.0
  0
LINE
  5
37C
330
374
100
AcDbEntity
  8
WALL
100
AcDbLine
 10
2.045817958966328
 20
2.706922707074214
 30
0.0
 11
2.045817958966328
 21
3.06620026184963
 31
0.0
  0
LINE
  5
37D
330
374
100
AcDbEntity
  8
WALL
100
AcDbLine
 10
2.045817958966328
 20
3.06620026184963
 30
0.0
 11
2.045817958966328
 21
3.538772234567712
 31
0.0
  0
MTEXT
  5
37E
330
374
100
AcDbEntity
  8
WALL
100
AcDbMText
 10
1.731905047882284
 20
2.763576242972784
 30
-0.0000000000000191
 40
0.1041666666666667
 41
0.0
 71
     1
 72
     1
  1
1"
  7
SLDTEXTSTYLE0
 73
     1
 44
1.0
1001
ACAD
1000
MTEXTBEGIN
1070
    73
1070
     1
1070
    44
1040
1.0
1070
    74
1070
     0
1000
MTEXTEND
  0
ENDBLK
  5
376
330
374
100
AcDbEntity
  8
0
100
AcDbBlockEnd
  0
ENDSEC
  0
SECTION
  2
ENTITIES
  0
LINE
  5
A3
330
1F
100
AcDbEntity
  8
0
  6
Continuous
 62
     7
370
     5
100
AcDbLine
 10
3.824262620779929
 20
8.646057066700652
 30
0.0
 11
3.805426315932476
 21
8.658363309819243
 31
0.0
  0
LINE
  5
A4
330
1F
100
AcDbEntity
  8
0
  6
Continuous
 62
     7
370
     5
100
AcDbLine
 10
3.805426315932476
 20
8.658363309819243
 30
0.0
 11
3.777395428829022
 21
8.615458393222269
 31
0.0
  0
LINE
  5
A5
330
1F
100
AcDbEntity
  8
0
  6
Continuous
 62
     7
370
     5
100
AcDbLine
 10
3.777395428829022
 20
8.615458393222269
 30
0.0
 11
3.734490512232047
 21
8.643489280325722
 31
0.0
  0
LINE
  5
A6
330
1F
100
AcDbEntity
  8
0
  6
Continuous
 62
     7
370
     5
100
AcDbLine
 10
3.734490512232047
 20
8.643489280325722
 30
0.0
 11
3.722184269113457
 21
8.624652975478271
 31
0.0
  0
LINE
  5
A7
330
1F
100
AcDbEntity
  8
0
  6
Continuous
 62
     7
370
     5
100
AcDbLine
 10
3.722184269113457
 20
8.624652975478271
 30
0.0
 11
3.765089185710432
 21
8.596622088374816
 31
0.0
  0
LINE
  5
A8
330
1F
100
AcDbEntity
  8
0
  6
Continuous
 62
     7
370
     5
100
AcDbLine
 10
3.765089185710432
 20
8.596622088374816
 30
0.0
 11
3.737058298606978
 21
8.553717171777842
 31
0.0
  0
LINE
  5
A9
330
1F
100
AcDbEntity
  8
0
  6
Continuous
 62
     7
370
     5
100
AcDbLine
 10
3.737058298606978
 20
8.553717171777842
 30
0.0
 11
3.75589460345443
 21
8.541410928659251
 31
0.0
  0
LINE
  5
AA
330
1F
100
AcDbEntity
  8
0
  6
Continuous
 62
     7
370
     5
100
AcDbLine
 10
3.75589460345443
 20
8.541410928659251
 30
0.0
 11
3.783925490557885
 21
8.584315845256226
 31
0.0
  0
LINE
  5
AB
330
1F
100
AcDbEntity
  8
0
  6
Continuous
 62
     7
370
     5
100
AcDbLine
 10
3.783925490557885
 20
8.584315845256226
 30
0.0
 11
3.82683040715486
 21
8.556284958152772
 31
0.0
  0
LINE
  5
AC
330
1F
100
AcDbEntity
  8
0
  6
Continuous
 62
     7
370
     5
100
AcDbLine
 10
3.82683040715486
 20
8.556284958152772
 30
0.0
 11
3.83913665027345
 21
8.575121263000223
 31
0.0
  0
LINE
  5
AD
330
1F
100
AcDbEntity
  8
0
  6
Continuous
 62
     7
370
     5
100
AcDbLine
 10
3.83913665027345
 20
8.575121263000223
 30
0.0
 11
3.796231733676474
 21
8.603152150103678
 31
0.0
  0
LINE
  5
AE
330
1F
100
AcDbEntity
  8
0
  6
Continuous
 62
     7
370
     5
100
AcDbLine
 10
3.796231733676474
 20
8.603152150103678
 30
0.0
 11
3.824262620779929
 21
8.646057066700652
 31
0.0
  0
CIRCLE
  5
AF
330
1F
100
AcDbEntity
  8
0
  6
Continuous
 62
     7
370
     5
100
AcDbCircle
 10
3.780660459693453
 20
8.599887119239246
 30
0.0
 40
0.096250000000001
  0
CIRCLE
  5
B0
330
1F
100
AcDbEntity
  8
0
  6
Continuous
 62
     7
370
     5
100
AcDbCircle
 10
3.780660459693454
 20
6.678393254592529
 30
0.0
 40
0.0962500000000009
  0
LINE
  5
B1
330
1F
100
AcDbEntity
  8
0
  6
Continuous
 62
     7
370
     5
100
AcDbLine
 10
3.798843726543188
 20
6.617547701701036
 30
0.0
 11
3.818919398132759
 21
6.627707298653064
 31
0.0
  0
LINE
  5
B2
330
1F
100
AcDbEntity
  8
0
  6
Continuous
 62
     7
370
     5
100
AcDbLine
 10
3.818919398132759
 20
6.627707298653064
 30
0.0
 11
3.795778093964253
 21
6.673435217273756
 31
0.0
  0
LINE
  5
B3
330
1F
100
AcDbEntity
  8
0
  6
Continuous
 62
     7
370
     5
100
AcDbLine
 10
3.795778093964253
 20
6.673435217273756
 30
0.0
 11
3.841506012584946
 21
6.696576521442262
 31
0.0
  0
LINE
  5
B4
330
1F
100
AcDbEntity
  8
0
  6
Continuous
 62
     7
370
     5
100
AcDbLine
 10
3.841506012584946
 20
6.696576521442262
 30
0.0
 11
3.831346415632919
 21
6.716652193031834
 31
0.0
  0
LINE
  5
B5
330
1F
100
AcDbEntity
  8
0
  6
Continuous
 62
     7
370
     5
100
AcDbLine
 10
3.831346415632919
 20
6.716652193031834
 30
0.0
 11
3.785618497012226
 21
6.693510888863329
 31
0.0
  0
LINE
  5
B6
330
1F
100
AcDbEntity
  8
0
  6
Continuous
 62
     7
370
     5
100
AcDbLine
 10
3.785618497012226
 20
6.693510888863329
 30
0.0
 11
3.76247719284372
 21
6.739238807484021
 31
0.0
  0
LINE
  5
B7
330
1F
100
AcDbEntity
  8
0
  6
Continuous
 62
     7
370
     5
100
AcDbLine
 10
3.76247719284372
 20
6.739238807484021
 30
0.0
 11
3.742401521254147
 21
6.729079210531994
 31
0.0
  0
LINE
  5
B8
330
1F
100
AcDbEntity
  8
0
  6
Continuous
 62
     7
370
     5
100
AcDbLine
 10
3.742401521254147
 20
6.729079210531994
 30
0.0
 11
3.765542825422654
 21
6.683351291911301
 31
0.0
  0
LINE
  5
B9
330
1F
100
AcDbEntity
  8
0
  6
Continuous
 62
     7
370
     5
100
AcDbLine
 10
3.765542825422654
 20
6.683351291911301
 30
0.0
 11
3.719814906801961
 21
6.660209987742795
 31
0.0
  0
LINE
  5
BA
330
1F
100
AcDbEntity
  8
0
  6
Continuous
 62
     7
370
     5
100
AcDbLine
 10
3.719814906801961
 20
6.660209987742795
 30
0.0
 11
3.729974503753989
 21
6.640134316153222
 31
0.0
  0
LINE
  5
BB
330
1F
100
AcDbEntity
  8
0
  6
Continuous
 62
     7
370
     5
100
AcDbLine
 10
3.729974503753989
 20
6.640134316153222
 30
0.0
 11
3.775702422374681
 21
6.663275620321729
 31
0.0
  0
LINE
  5
BC
330
1F
100
AcDbEntity
  8
0
  6
Continuous
 62
     7
370
     5
100
AcDbLine
 10
3.775702422374681
 20
6.663275620321729
 30
0.0
 11
3.798843726543188
 21
6.617547701701036
 31
0.0
  0
CIRCLE
  5
BD
330
1F
100
AcDbEntity
  8
0
  6
Continuous
 62
     7
370
     5
100
AcDbCircle
 10
2.116597959693448
 20
7.639140186915888
 30
0.0
 40
0.0962499999999998
  0
LINE
  5
BE
330
1F
100
AcDbEntity
  8
0
  6
Continuous
 62
     7
370
     5
100
AcDbLine
 10
2.05481253175724
 20
7.653815792345973
 30
0.0
 11
2.05357316501512
 21
7.631349952275356
 31
0.0
  0
LINE
  5
BF
330
1F
100
AcDbEntity
  8
0
  6
Continuous
 62
     7
370
     5
100
AcDbLine
 10
2.05357316501512
 20
7.631349952275356
 30
0.0
 11
2.10474535628708
 21
7.628526950251639
 31
0.0
  0
LINE
  5
C0
330
1F
100
AcDbEntity
  8
0
  6
Continuous
 62
     7
370
     5
100
AcDbLine
 10
2.10474535628708
 20
7.628526950251639
 30
0.0
 11
2.101922354263363
 21
7.577354758979678
 31
0.0
  0
LINE
  5
C1
330
1F
100
AcDbEntity
  8
0
  6
Continuous
 62
     7
370
     5
100
AcDbLine
 10
2.101922354263363
 20
7.577354758979678
 30
0.0
 11
2.12438819433398
 21
7.576115392237558
 31
0.0
  0
LINE
  5
C2
330
1F
100
AcDbEntity
  8
0
  6
Continuous
 62
     7
370
     5
100
AcDbLine
 10
2.12438819433398
 20
7.576115392237558
 30
0.0
 11
2.127211196357697
 21
7.627287583509519
 31
0.0
  0
LINE
  5
C3
330
1F
100
AcDbEntity
  8
0
  6
Continuous
 62
     7
370
     5
100
AcDbLine
 10
2.127211196357697
 20
7.627287583509519
 30
0.0
 11
2.178383387629657
 21
7.624464581485803
 31
0.0
  0
LINE
  5
C4
330
1F
100
AcDbEntity
  8
0
  6
Continuous
 62
     7
370
     5
100
AcDbLine
 10
2.178383387629657
 20
7.624464581485803
 30
0.0
 11
2.179622754371777
 21
7.646930421556418
 31
0.0
  0
LINE
  5
C5
330
1F
100
AcDbEntity
  8
0
  6
Continuous
 62
     7
370
     5
100
AcDbLine
 10
2.179622754371777
 20
7.646930421556418
 30
0.0
 11
2.128450563099816
 21
7.649753423580136
 31
0.0
  0
LINE
  5
C6
330
1F
100
AcDbEntity
  8
0
  6
Continuous
 62
     7
370
     5
100
AcDbLine
 10
2.128450563099816
 20
7.649753423580136
 30
0.0
 11
2.131273565123534
 21
7.700925614852096
 31
0.0
  0
LINE
  5
C7
330
1F
100
AcDbEntity
  8
0
  6
Continuous
 62
     7
370
     5
100
AcDbLine
 10
2.131273565123534
 20
7.700925614852096
 30
0.0
 11
2.108807725052917
 21
7.702164981594216
 31
0.0
  0
LINE
  5
C8
330
1F
100
AcDbEntity
  8
0
  6
Continuous
 62
     7
370
     5
100
AcDbLine
 10
2.108807725052917
 20
7.702164981594216
 30
0.0
 11
2.1059847230292
 21
7.650992790322256
 31
0.0
  0
LINE
  5
C9
330
1F
100
AcDbEntity
  8
0
  6
Continuous
 62
     7
370
     5
100
AcDbLine
 10
2.1059847230292
 20
7.650992790322256
 30
0.0
 11
2.05481253175724
 21
7.653815792345973
 31
0.0
  0
CIRCLE
  5
CA
330
1F
100
AcDbEntity
  8
0
  6
Continuous
 62
     7
370
     5
100
AcDbCircle
 10
3.780660459693439
 20
6.678393254592521
 30
0.0
 40
0.0962499999999996
  0
ARC
  5
CB
330
1F
100
AcDbEntity
  8
0
  6
Continuous
 62
     7
370
     5
100
AcDbCircle
 10
3.780660459693439
 20
6.678393254592521
 30
0.0
 40
0.0502500000000002
100
AcDbArc
 50
283.9053183798259
 51
309.7794423383669
  0
ARC
  5
CC
330
1F
100
AcDbEntity
  8
0
  6
Continuous
 62
     7
370
     5
100
AcDbCircle
 10
3.780660459693439
 20
6.678393254592521
 30
0.0
 40
0.0502500000000004
100
AcDbArc
 50
13.90531837980716
 51
39.77944233834746
  0
ARC
  5
CD
330
1F
100
AcDbEntity
  8
0
  6
Continuous
 62
     7
370
     5
100
AcDbCircle
 10
3.780660459693439
 20
6.678393254592521
 30
0.0
 40
0.0502500000000004
100
AcDbArc
 50
103.905318379787
 51
129.7794423383284
  0
ARC
  5
CE
330
1F
100
AcDbEntity
  8
0
  6
Continuous
 62
     7
370
     5
100
AcDbCircle
 10
3.780660459693439
 20
6.678393254592521
 30
0.0
 40
0.0502499999999999
100
AcDbArc
 50
193.9053183798071
 51
219.7794423383475
  0
CIRCLE
  5
CF
330
1F
100
AcDbEntity
  8
0
  6
Continuous
 62
     7
370
     5
100
AcDbCircle
 10
2.116597959693448
 20
7.639140186915904
 30
0.0
 40
0.0962499999999999
  0
ARC
  5
D0
330
1F
100
AcDbEntity
  8
0
  6
Continuous
 62
     7
370
     5
100
AcDbCircle
 10
2.116597959693448
 20
7.639140186915904
 30
0.0
 40
0.0502500000000005
100
AcDbArc
 50
253.9053183798074
 51
279.7794423383488
  0
ARC
  5
D1
330
1F
100
AcDbEntity
  8
0
  6
Continuous
 62
     7
370
     5
100
AcDbCircle
 10
2.116597959693448
 20
7.639140186915904
 30
0.0
 40
0.0502500000000001
100
AcDbArc
 50
343.9053183797875
 51
9.77944233832755
  0
ARC
  5
D2
330
1F
100
AcDbEntity
  8
0
  6
Continuous
 62
     7
370
     5
100
AcDbCircle
 10
2.116597959693448
 20
7.639140186915904
 30
0.0
 40
0.0502500000000002
100
AcDbArc
 50
73.9053183798047
 51
99.77944233834554
  0
ARC
  5
D3
330
1F
100
AcDbEntity
  8
0
  6
Continuous
 62
     7
370
     5
100
AcDbCircle
 10
2.116597959693448
 20
7.639140186915904
 30
0.0
 40
0.05025
100
AcDbArc
 50
163.9053183798257
 51
189.7794423383664
  0
ARC
  5
D4
330
1F
100
AcDbEntity
  8
0
  6
Continuous
 62
     7
370
     5
100
AcDbCircle
 10
2.9445975874629
 20
6.897481177135362
 30
0.0
 40
0.0500000000000011
100
AcDbArc
 50
152.2091371590457
 51
249.2239338174524
  0
ARC
  5
D5
330
1F
100
AcDbEntity
  8
0
  6
Continuous
 62
     7
370
     5
100
AcDbCircle
 10
3.225972959693449
 20
7.639140186915889
 30
0.0
 40
0.8432403084100766
100
AcDbArc
 50
249.2239338174518
 51
264.0897719211173
  0
ARC
  5
D6
330
1F
100
AcDbEntity
  8
0
  6
Continuous
 62
     7
370
     5
100
AcDbCircle
 10
3.144292923288614
 20
6.850116385919102
 30
0.0
 40
0.0500000000000001
100
AcDbArc
 50
264.0897719211165
 51
1.104568579521806
  0
LINE
  5
D7
330
1F
100
AcDbEntity
  8
0
  6
Continuous
 62
     7
370
     5
100
AcDbLine
 10
3.193797948794022
 20
6.876270315876515
 30
0.0
 11
3.194283632198688
 21
6.851080244139045
 31
0.0
  0
ARC
  5
D8
330
1F
100
AcDbEntity
  8
0
  6
Continuous
 62
     7
370
     5
100
AcDbCircle
 10
3.143807239883947
 20
6.875306457656572
 30
0.0
 40
0.0500000000000001
100
AcDbArc
 50
1.104568579522824
 51
83.86029249384877
  0
ARC
  5
D9
330
1F
100
AcDbEntity
  8
0
  6
Continuous
 62
     7
370
     5
100
AcDbCircle
 10
3.225972959693449
 20
7.639140186915889
 30
0.0
 40
0.7182403084100761
100
AcDbArc
 50
249.4534132447201
 51
263.8602924938489
  0
ARC
  5
DA
330
1F
100
AcDbEntity
  8
0
  6
Continuous
 62
     7
370
     5
100
AcDbCircle
 10
2.956344529585286
 20
6.919769850341316
 30
0.0
 40
0.0499999999999995
100
AcDbArc
 50
69.45341324471929
 51
152.2091371590466
  0
LINE
  5
DB
330
1F
100
AcDbEntity
  8
0
  6
Continuous
 62
     7
370
     5
100
AcDbLine
 10
2.900364820448855
 20
6.920793455494226
 30
0.0
 11
2.912111762571241
 21
6.943082128700179
 31
0.0
  0
ARC
  5
DC
330
1F
100
AcDbEntity
  8
0
  6
Continuous
 62
     7
370
     5
100
AcDbCircle
 10
3.023178604046845
 20
7.101088656560404
 30
0.0
 40
0.0500000000000005
100
AcDbArc
 50
151.2249886383072
 51
249.3483188979382
  0
ARC
  5
DD
330
1F
100
AcDbEntity
  8
0
  6
Continuous
 62
     7
370
     5
100
AcDbCircle
 10
3.225972959693449
 20
7.639140186915889
 30
0.0
 40
0.6250000000000011
100
AcDbArc
 50
249.3483188979383
 51
290.3006462934627
  0
ARC
  5
DE
330
1F
100
AcDbEntity
  8
0
  6
Continuous
 62
     7
370
     5
100
AcDbCircle
 10
3.425467042455423
 20
7.099856299762787
 30
0.0
 40
0.0500000000000008
100
AcDbArc
 50
290.3006462934625
 51
29.9999999999991
  0
LINE
  5
DF
330
1F
100
AcDbEntity
  8
0
  6
Continuous
 62
     7
370
     5
100
AcDbLine
 10
3.456078607353191
 20
7.146835514060662
 30
0.0
 11
3.468768312644646
 21
7.124856299762787
 31
0.0
  0
ARC
  5
E0
330
1F
100
AcDbEntity
  8
0
  6
Continuous
 62
     7
370
     5
100
AcDbCircle
 10
3.412777337163968
 20
7.121835514060663
 30
0.0
 40
0.0499999999999999
100
AcDbArc
 50
29.99999999999936
 51
109.8552057736871
  0
ARC
  5
E1
330
1F
100
AcDbEntity
  8
0
  6
Continuous
 62
     7
370
     5
100
AcDbCircle
 10
3.225972959693449
 20
7.639140186915889
 30
0.0
 40
0.5000000000000008
100
AcDbArc
 50
249.7202302165648
 51
289.8552057736881
  0
ARC
  5
E2
330
1F
100
AcDbEntity
  8
0
  6
Continuous
 62
     7
370
     5
100
AcDbCircle
 10
3.03534049762769
 20
7.123233931471406
 30
0.0
 40
0.0500000000000005
100
AcDbArc
 50
69.72023021656351
 51
151.2249886383081
  0
LINE
  5
E3
330
1F
100
AcDbEntity
  8
0
  6
Continuous
 62
     7
370
     5
100
AcDbLine
 10
2.979352768753921
 20
7.125157228617706
 30
0.0
 11
2.991514662334767
 21
7.147302503528708
 31
0.0
  0
ARC
  5
E4
330
1F
100
AcDbEntity
  8
0
  6
Continuous
 62
     7
370
     5
100
AcDbCircle
 10
2.883802885871818
 20
6.686210026525893
 30
0.0
 40
0.0500000000000001
100
AcDbArc
 50
197.2091371590452
 51
250.2482324982556
  0
ARC
  5
E5
330
1F
100
AcDbEntity
  8
0
  6
Continuous
 62
     7
370
     5
100
AcDbCircle
 10
3.225972959693449
 20
7.639140186915889
 30
0.0
 40
1.062500000000001
100
AcDbArc
 50
250.2482324982555
 51
265.6141661963228
  0
ARC
  5
E6
330
1F
100
AcDbEntity
  8
0
  6
Continuous
 62
     7
370
     5
100
AcDbCircle
 10
3.148544545633471
 20
6.629605100504249
 30
0.0
 40
0.0500000000000009
100
AcDbArc
 50
265.6141661963218
 51
1.104568579521806
  0
LINE
  5
E7
330
1F
100
AcDbEntity
  8
0
  6
Continuous
 62
     7
370
     5
100
AcDbLine
 10
3.198051047633357
 20
6.655682451765613
 30
0.0
 11
3.198535254543545
 21
6.630568958724191
 31
0.0
  0
ARC
  5
E8
330
1F
100
AcDbEntity
  8
0
  6
Continuous
 62
     7
370
     5
100
AcDbCircle
 10
3.148060338723282
 20
6.654718593545669
 30
0.0
 40
0.0500000000000005
100
AcDbArc
 50
1.104568579522824
 51
85.47472520155137
  0
ARC
  5
E9
330
1F
100
AcDbEntity
  8
0
  6
Continuous
 62
     7
370
     5
100
AcDbCircle
 10
3.225972959693449
 20
7.639140186915889
 30
0.0
 40
0.9375000000000014
100
AcDbArc
 50
246.8347877385685
 51
265.4747252015521
  0
ARC
  5
EA
330
1F
100
AcDbEntity
  8
0
  6
Continuous
 62
     7
370
     5
100
AcDbCircle
 10
2.844882428369519
 20
6.748496279714336
 30
0.0
 40
0.0312500000000002
100
AcDbArc
 50
66.83478773856767
 51
197.2091371590462
  0
LINE
  5
EB
330
1F
100
AcDbEntity
  8
0
  6
Continuous
 62
     7
370
     5
100
AcDbLine
 10
2.836041326253081
 20
6.67141700713208
 30
0.0
 11
2.815031453607808
 21
6.739250642593202
 31
0.0
  0
ARC
  5
EC
330
1F
100
AcDbEntity
  8
0
  6
Continuous
 62
     7
370
     5
100
AcDbCircle
 10
4.00895618922427
 20
7.766291471455199
 30
0.0
 40
0.0500000000000008
100
AcDbArc
 50
272.2091371590465
 51
9.22393381745112
  0
ARC
  5
ED
330
1F
100
AcDbEntity
  8
0
  6
Continuous
 62
     7
370
     5
100
AcDbCircle
 10
3.225972959693449
 20
7.639140186915889
 30
0.0
 40
0.8432403084100755
100
AcDbArc
 50
9.223933817451261
 51
24.08977192111677
  0
ARC
  5
EE
330
1F
100
AcDbEntity
  8
0
  6
Continuous
 62
     7
370
     5
100
AcDbCircle
 10
3.950127633749639
 20
7.962915100905659
 30
0.0
 40
0.0500000000000004
100
AcDbArc
 50
24.08977192111762
 51
121.1045685795235
  0
LINE
  5
EF
330
1F
100
AcDbEntity
  8
0
  6
Continuous
 62
     7
370
     5
100
AcDbLine
 10
3.902725153245016
 20
7.992710745629633
 30
0.0
 11
3.924297553590484
 21
8.005726395665005
 31
0.0
  0
ARC
  5
F0
330
1F
100
AcDbEntity
  8
0
  6
Continuous
 62
     7
370
     5
100
AcDbCircle
 10
3.928555233404171
 20
7.949899450870288
 30
0.0
 40
0.0500000000000003
100
AcDbArc
 50
121.1045685795236
 51
203.8602924938501
  0
ARC
  5
F1
330
1F
100
AcDbEntity
  8
0
  6
Continuous
 62
     7
370
     5
100
AcDbCircle
 10
3.225972959693449
 20
7.639140186915889
 30
0.0
 40
0.7182403084100754
100
AcDbArc
 50
9.453413244719486
 51
23.8602924938484
  0
ARC
  5
F2
330
1F
100
AcDbEntity
  8
0
  6
Continuous
 62
     7
370
     5
100
AcDbCircle
 10
3.983780160950072
 20
7.765320285146993
 30
0.0
 40
0.05
100
AcDbArc
 50
189.4534132447209
 51
272.2091371590465
  0
LINE
  5
F3
330
1F
100
AcDbEntity
  8
0
  6
Continuous
 62
     7
370
     5
100
AcDbLine
 10
4.010883547452421
 20
7.716328632361924
 30
0.0
 11
3.985707519178223
 21
7.715357446053719
 31
0.0
  0
ARC
  5
F4
330
1F
100
AcDbEntity
  8
0
  6
Continuous
 62
     7
370
     5
100
AcDbCircle
 10
3.793336431349694
 20
7.732540888359578
 30
0.0
 40
0.0499999999999996
100
AcDbArc
 50
271.2249886383086
 51
9.348318897937975
  0
ARC
  5
F5
330
1F
100
AcDbEntity
  8
0
  6
Continuous
 62
     7
370
     5
100
AcDbCircle
 10
3.225972959693449
 20
7.639140186915889
 30
0.0
 40
0.6249999999999999
100
AcDbArc
 50
9.34831889793778
 51
50.30064629346224
  0
ARC
  5
F6
330
1F
100
AcDbEntity
  8
0
  6
Continuous
 62
     7
370
     5
100
AcDbCircle
 10
3.593259464438665
 20
8.081549074068986
 30
0.0
 40
0.05
100
AcDbArc
 50
50.30064629346168
 51
149.9999999999995
  0
LINE
  5
F7
330
1F
100
AcDbEntity
  8
0
  6
Continuous
 62
     7
370
     5
100
AcDbLine
 10
3.537268488957989
 20
8.084569859771111
 30
0.0
 11
3.549958194249444
 21
8.106549074068986
 31
0.0
  0
ARC
  5
F8
330
1F
100
AcDbEntity
  8
0
  6
Continuous
 62
     7
370
     5
100
AcDbCircle
 10
3.58056975914721
 20
8.05956985977111
 30
0.0
 40
0.050000000000001
100
AcDbArc
 50
149.9999999999995
 51
229.8552057736892
  0
ARC
  5
F9
330
1F
100
AcDbEntity
  8
0
  6
Continuous
 62
     7
370
     5
100
AcDbCircle
 10
3.225972959693449
 20
7.639140186915889
 30
0.0
 40
0.5
100
AcDbArc
 50
9.720230216564276
 51
49.85520577368747
  0
ARC
  5
FA
330
1F
100
AcDbEntity
  8
0
  6
Continuous
 62
     7
370
     5
100
AcDbCircle
 10
3.768077113912553
 20
7.732000759703212
 30
0.0
 40
0.0500000000000002
100
AcDbArc
 50
189.7202302165642
 51
271.2249886383086
  0
LINE
  5
FB
330
1F
100
AcDbEntity
  8
0
  6
Continuous
 62
     7
370
     5
100
AcDbLine
 10
3.794405354161716
 20
7.682552315625184
 30
0.0
 11
3.769146036724575
 21
7.682012186968817
 31
0.0
  0
ARC
  5
FC
330
1F
100
AcDbEntity
  8
0
  6
Continuous
 62
     7
370
     5
100
AcDbCircle
 10
4.222319723534378
 20
7.819277290766563
 30
0.0
 40
0.0500000000000012
100
AcDbArc
 50
317.2091371590457
 51
10.24823249825466
  0
ARC
  5
FD
330
1F
100
AcDbEntity
  8
0
  6
Continuous
 62
     7
370
     5
100
AcDbCircle
 10
3.225972959693449
 20
7.639140186915889
 30
0.0
 40
1.062500000000001
100
AcDbArc
 50
10.2482324982549
 51
25.61416619632234
  0
ARC
  5
FE
330
1F
100
AcDbEntity
  8
0
  6
Continuous
 62
     7
370
     5
100
AcDbCircle
 10
4.138970197567635
 20
8.076852756571032
 30
0.0
 40
0.0499999999999999
100
AcDbArc
 50
25.61416619632169
 51
121.1045685795226
  0
LINE
  5
FF
330
1F
100
AcDbEntity
  8
0
  6
Continuous
 62
     7
370
     5
100
AcDbLine
 10
4.09163329791194
 20
8.106687969324756
 30
0.0
 11
4.11314011740848
 21
8.119664051330378
 31
0.0
  0
ARC
  5
100
330
1F
100
AcDbEntity
  8
0
  6
Continuous
 62
     7
370
     5
100
AcDbCircle
 10
4.117463378071095
 20
8.06387667456541
 30
0.0
 40
0.0499999999999999
100
AcDbArc
 50
121.1045685795226
 51
205.4747252015515
  0
ARC
  5
101
330
1F
100
AcDbEntity
  8
0
  6
Continuous
 62
     7
370
     5
100
AcDbCircle
 10
3.225972959693449
 20
7.639140186915889
 30
0.0
 40
0.9375000000000015
100
AcDbArc
 50
6.834787738567845
 51
25.47472520155155
  0
LINE
  5
102
330
1F
100
AcDbEntity
  8
0
  6
Continuous
 62
     7
370
     5
100
AcDbLine
 10
4.259011633937467
 20
7.785311076509277
 30
0.0
 11
4.210770918719717
 21
7.733199175337634
 31
0.0
  0
ARC
  5
103
330
1F
100
AcDbEntity
  8
0
  6
Continuous
 62
     7
370
     5
100
AcDbCircle
 10
3.225972959693449
 20
7.639140186915889
 30
0.0
 40
0.7182403084100754
100
AcDbArc
 50
67.24427608567386
 51
81.65115533480271
  0
ARC
  5
104
330
1F
100
AcDbEntity
  8
0
  6
Continuous
 62
     7
370
     5
100
AcDbCircle
 10
3.52313068380847
 20
8.347582462944634
 30
0.0
 40
0.0500000000000012
100
AcDbArc
 50
247.244276085675
 51
330.0000000000003
  0
LINE
  5
105
330
1F
100
AcDbEntity
  8
0
  6
Continuous
 62
     7
370
     5
100
AcDbLine
 10
3.566431953997692
 20
8.322582462944634
 30
0.0
 11
3.579029330733629
 21
8.344401759493361
 31
0.0
  0
ARC
  5
106
330
1F
100
AcDbEntity
  8
0
  6
Continuous
 62
     7
370
     5
100
AcDbCircle
 10
3.535728060544407
 20
8.369401759493362
 30
0.0
 40
0.0500000000000004
100
AcDbArc
 50
330.0000000000006
 51
67.01479665840462
  0
ARC
  5
107
330
1F
100
AcDbEntity
  8
0
  6
Continuous
 62
     7
370
     5
100
AcDbCircle
 10
3.225972959693449
 20
7.639140186915889
 30
0.0
 40
0.8432403084100752
100
AcDbArc
 50
67.01479665840547
 51
81.88063476207108
  0
ARC
  5
108
330
1F
100
AcDbEntity
  8
0
  6
Continuous
 62
     7
370
     5
100
AcDbCircle
 10
3.338006920315165
 20
8.424429037310394
 30
0.0
 40
0.0499999999999999
100
AcDbArc
 50
81.88063476207096
 51
178.8954314204772
  0
LINE
  5
109
330
1F
100
AcDbEntity
  8
0
  6
Continuous
 62
     7
370
     5
100
AcDbLine
 10
3.28801621140509
 20
8.425392895530338
 30
0.0
 11
3.287530528000424
 21
8.400202823792866
 31
0.0
  0
ARC
  5
10A
330
1F
100
AcDbEntity
  8
0
  6
Continuous
 62
     7
370
     5
100
AcDbCircle
 10
3.337521236910498
 20
8.399238965572923
 30
0.0
 40
0.0499999999999999
100
AcDbArc
 50
178.8954314204772
 51
261.6511553348039
  0
ARC
  5
10B
330
1F
100
AcDbEntity
  8
0
  6
Continuous
 62
     7
370
     5
100
AcDbCircle
 10
3.225972959693449
 20
7.639140186915889
 30
0.0
 40
0.9375000000000007
100
AcDbArc
 50
94.52527479844789
 51
113.1652122614315
  0
ARC
  5
10C
330
1F
100
AcDbEntity
  8
0
  6
Continuous
 62
     7
370
     5
100
AcDbCircle
 10
3.148060338723297
 20
8.623561780286109
 30
0.0
 40
0.0500000000000013
100
AcDbArc
 50
274.5252747984483
 51
358.895431420478
  0
LINE
  5
10D
330
1F
100
AcDbEntity
  8
0
  6
Continuous
 62
     7
370
     5
100
AcDbLine
 10
3.198051047633372
 20
8.622597922066166
 30
0.0
 11
3.198535254543561
 21
8.647711415107586
 31
0.0
  0
ARC
  5
10E
330
1F
100
AcDbEntity
  8
0
  6
Continuous
 62
     7
370
     5
100
AcDbCircle
 10
3.148544545633486
 20
8.64867527332753
 30
0.0
 40
0.05
100
AcDbArc
 50
358.895431420478
 51
94.38583380367802
  0
ARC
  5
10F
330
1F
100
AcDbEntity
  8
0
  6
Continuous
 62
     7
370
     5
100
AcDbCircle
 10
3.225972959693449
 20
7.639140186915889
 30
0.0
 40
1.0625
100
AcDbArc
 50
94.38583380367708
 51
109.7517675017445
  0
ARC
  5
110
330
1F
100
AcDbEntity
  8
0
  6
Continuous
 62
     7
370
     5
100
AcDbCircle
 10
2.883802885871832
 20
8.592070347305888
 30
0.0
 40
0.0499999999999998
100
AcDbArc
 50
109.7517675017442
 51
162.7908628409547
  0
LINE
  5
111
330
1F
100
AcDbEntity
  8
0
  6
Continuous
 62
     7
370
     5
100
AcDbLine
 10
2.836041326253095
 20
8.606863366699702
 30
0.0
 11
2.815031453607821
 21
8.53902973123858
 31
0.0
  0
ARC
  5
112
330
1F
100
AcDbEntity
  8
0
  6
Continuous
 62
     7
370
     5
100
AcDbCircle
 10
2.844882428369533
 20
8.529784094117447
 30
0.0
 40
0.0312500000000005
100
AcDbArc
 50
162.7908628409566
 51
293.1652122614302
  0
ARC
  5
113
330
1F
100
AcDbEntity
  8
0
  6
Continuous
 62
     7
370
     5
100
AcDbCircle
 10
3.225972959693449
 20
7.639140186915889
 30
0.0
 40
0.2812499999999999
100
AcDbArc
 50
77.00486059183969
 51
104.5764514866487
  0
ARC
  5
114
330
1F
100
AcDbEntity
  8
0
  6
Continuous
 62
     7
370
     5
100
AcDbCircle
 10
3.300460615363655
 20
7.961906591073379
 30
0.0
 40
0.0500000000000004
100
AcDbArc
 50
257.004860591841
 51
330.0000000000006
  0
LINE
  5
115
330
1F
100
AcDbEntity
  8
0
  6
Continuous
 62
     7
370
     5
100
AcDbLine
 10
3.343761885552877
 20
7.936906591073379
 30
0.0
 11
3.356790749511479
 21
7.959473245414579
 31
0.0
  0
ARC
  5
116
330
1F
100
AcDbEntity
  8
0
  6
Continuous
 62
     7
370
     5
100
AcDbCircle
 10
3.313489479322257
 20
7.98447324541458
 30
0.0
 40
0.050000000000001
100
AcDbArc
 50
329.9999999999997
 51
75.77913498266251
  0
ARC
  5
117
330
1F
100
AcDbEntity
  8
0
  6
Continuous
 62
     7
370
     5
100
AcDbCircle
 10
3.225972959693449
 20
7.639140186915889
 30
0.0
 40
0.4062500000000011
100
AcDbArc
 50
75.77913498266269
 51
105.5915298754712
  0
ARC
  5
118
330
1F
100
AcDbEntity
  8
0
  6
Continuous
 62
     7
370
     5
100
AcDbCircle
 10
3.13022099959637
 20
7.98228101024877
 30
0.0
 40
0.0500000000000005
100
AcDbArc
 50
105.5915298754712
 51
208.7750113616918
  0
LINE
  5
119
330
1F
100
AcDbEntity
  8
0
  6
Continuous
 62
     7
370
     5
100
AcDbLine
 10
3.086395164303446
 20
7.958212438191469
 30
0.0
 11
3.098780903795328
 21
7.935659568097641
 31
0.0
  0
ARC
  5
11A
330
1F
100
AcDbEntity
  8
0
  6
Continuous
 62
     7
370
     5
100
AcDbCircle
 10
3.142606739088251
 20
7.959728140154942
 30
0.0
 40
0.0500000000000003
100
AcDbArc
 50
208.7750113616927
 51
284.5764514866493
  0
ARC
  5
11B
330
1F
100
AcDbEntity
  8
0
  6
Continuous
 62
     7
370
     5
100
AcDbCircle
 10
3.225972959693449
 20
7.639140186915889
 30
0.0
 40
0.4999999999999997
100
AcDbArc
 50
70.1447942263119
 51
110.2797697834352
  0
ARC
  5
11C
330
1F
100
AcDbEntity
  8
0
  6
Continuous
 62
     7
370
     5
100
AcDbCircle
 10
3.412777337163976
 20
8.156444859771111
 30
0.0
 40
0.0500000000000004
100
AcDbArc
 50
250.1447942263122
 51
330.0000000000003
  0
LINE
  5
11D
330
1F
100
AcDbEntity
  8
0
  6
Continuous
 62
     7
370
     5
100
AcDbLine
 10
3.456078607353198
 20
8.131444859771111
 30
0.0
 11
3.468768312644653
 21
8.153424074068986
 31
0.0
  0
ARC
  5
11E
330
1F
100
AcDbEntity
  8
0
  6
Continuous
 62
     7
370
     5
100
AcDbCircle
 10
3.425467042455431
 20
8.178424074068987
 30
0.0
 40
0.0500000000000003
100
AcDbArc
 50
330.0000000000003
 51
69.699353706537
  0
ARC
  5
11F
330
1F
100
AcDbEntity
  8
0
  6
Continuous
 62
     7
370
     5
100
AcDbCircle
 10
3.225972959693449
 20
7.639140186915889
 30
0.0
 40
0.6250000000000001
100
AcDbArc
 50
69.69935370653712
 51
110.6516811020617
  0
ARC
  5
120
330
1F
100
AcDbEntity
  8
0
  6
Continuous
 62
     7
370
     5
100
AcDbCircle
 10
3.023178604046852
 20
8.177191717271377
 30
0.0
 40
0.0499999999999996
100
AcDbArc
 50
110.651681102062
 51
208.7750113616918
  0
LINE
  5
121
330
1F
100
AcDbEntity
  8
0
  6
Continuous
 62
     7
370
     5
100
AcDbLine
 10
2.979352768753928
 20
8.153123145214076
 30
0.0
 11
2.991514662334774
 21
8.130977870303071
 31
0.0
  0
ARC
  5
122
330
1F
100
AcDbEntity
  8
0
  6
Continuous
 62
     7
370
     5
100
AcDbCircle
 10
3.035340497627698
 20
8.155046442360374
 30
0.0
 40
0.0500000000000013
100
AcDbArc
 50
208.7750113616931
 51
290.279769783435
  0
ARC
  5
123
330
1F
100
AcDbEntity
  8
0
  6
Continuous
 62
     7
370
     5
100
AcDbCircle
 10
3.225972959693449
 20
7.639140186915889
 30
0.0
 40
0.9375000000000007
100
AcDbArc
 50
64.62565057952218
 51
83.26558804250582
  0
ARC
  5
124
330
1F
100
AcDbEntity
  8
0
  6
Continuous
 62
     7
370
     5
100
AcDbCircle
 10
3.641112054881556
 20
8.514432191989854
 30
0.0
 40
0.0312500000000005
100
AcDbArc
 50
244.6256505795233
 51
14.99999999999802
  0
LINE
  5
125
330
1F
100
AcDbEntity
  8
0
  6
Continuous
 62
     7
370
     5
100
AcDbLine
 10
3.671297236953089
 20
8.522520287149307
 30
0.0
 11
3.652917773535199
 21
8.591113378440731
 31
0.0
  0
ARC
  5
126
330
1F
100
AcDbEntity
  8
0
  6
Continuous
 62
     7
370
     5
100
AcDbCircle
 10
3.604621482220745
 20
8.578172426185604
 30
0.0
 40
0.0500000000000003
100
AcDbArc
 50
15.00000000000069
 51
68.03909533920976
  0
ARC
  5
127
330
1F
100
AcDbEntity
  8
0
  6
Continuous
 62
     7
370
     5
100
AcDbCircle
 10
3.225972959693449
 20
7.639140186915889
 30
0.0
 40
1.0625
100
AcDbArc
 50
68.03909533920919
 51
83.40502903727667
  0
ARC
  5
128
330
1F
100
AcDbEntity
  8
0
  6
Continuous
 62
     7
370
     5
100
AcDbCircle
 10
3.342258542660026
 20
8.644940322725247
 30
0.0
 40
0.0500000000000006
100
AcDbArc
 50
83.4050290372769
 51
178.8954314204772
  0
LINE
  5
129
330
1F
100
AcDbEntity
  8
0
  6
Continuous
 62
     7
370
     5
100
AcDbLine
 10
3.292267833749951
 20
8.645904180945191
 30
0.0
 11
3.291783626839763
 21
8.62079068790377
 31
0.0
  0
ARC
  5
12A
330
1F
100
AcDbEntity
  8
0
  6
Continuous
 62
     7
370
     5
100
AcDbCircle
 10
3.341774335749838
 20
8.619826829683827
 30
0.0
 40
0.0500000000000017
100
AcDbArc
 50
178.8954314204772
 51
263.2655880425066
  0
ARC
  5
12B
330
1F
100
AcDbEntity
  8
0
  6
Continuous
 62
     7
370
     5
100
AcDbCircle
 10
3.225972959693449
 20
7.639140186915889
 30
0.0
 40
0.718240308410075
100
AcDbArc
 50
96.13970750615099
 51
110.5465867552799
  0
ARC
  5
12C
330
1F
100
AcDbEntity
  8
0
  6
Continuous
 62
     7
370
     5
100
AcDbCircle
 10
3.143807239883958
 20
8.402973916175206
 30
0.0
 40
0.0500000000000003
100
AcDbArc
 50
276.139707506152
 51
358.895431420478
  0
LINE
  5
12D
330
1F
100
AcDbEntity
  8
0
  6
Continuous
 62
     7
370
     5
100
AcDbLine
 10
3.193797948794034
 20
8.402010057955262
 30
0.0
 11
3.1942836321987
 21
8.427200129692733
 31
0.0
  0
ARC
  5
12E
330
1F
100
AcDbEntity
  8
0
  6
Continuous
 62
     7
370
     5
100
AcDbCircle
 10
3.144292923288624
 20
8.428163987912677
 30
0.0
 40
0.0500000000000008
100
AcDbArc
 50
358.895431420478
 51
95.9102280788829
  0
ARC
  5
12F
330
1F
100
AcDbEntity
  8
0
  6
Continuous
 62
     7
370
     5
100
AcDbCircle
 10
3.225972959693449
 20
7.639140186915889
 30
0.0
 40
0.8432403084100752
100
AcDbArc
 50
95.9102280788827
 51
110.7760661825482
  0
ARC
  5
130
330
1F
100
AcDbEntity
  8
0
  6
Continuous
 62
     7
370
     5
100
AcDbCircle
 10
2.944597587462911
 20
8.380799196696418
 30
0.0
 40
0.0500000000000006
100
AcDbArc
 50
110.776066182547
 51
207.7908628409539
  0
LINE
  5
131
330
1F
100
AcDbEntity
  8
0
  6
Continuous
 62
     7
370
     5
100
AcDbLine
 10
2.900364820448865
 20
8.357486918337555
 30
0.0
 11
2.912111762571251
 21
8.335198245131602
 31
0.0
  0
ARC
  5
132
330
1F
100
AcDbEntity
  8
0
  6
Continuous
 62
     7
370
     5
100
AcDbCircle
 10
2.956344529585297
 20
8.358510523490467
 30
0.0
 40
0.0500000000000014
100
AcDbArc
 50
207.7908628409555
 51
290.5465867552786
  0
ARC
  5
133
330
1F
100
AcDbEntity
  8
0
  6
Continuous
 62
     7
370
     5
100
AcDbCircle
 10
3.850036073132914
 20
8.128808868098126
 30
0.0
 40
0.0500000000000008
100
AcDbArc
 50
301.1045685795245
 51
38.11936523792924
  0
ARC
  5
134
330
1F
100
AcDbEntity
  8
0
  6
Continuous
 62
     7
370
     5
100
AcDbCircle
 10
3.225972959693449
 20
7.639140186915889
 30
0.0
 40
0.8432403084100753
100
AcDbArc
 50
38.11936523792837
 51
52.98520334159396
  0
ARC
  5
135
330
1F
100
AcDbEntity
  8
0
  6
Continuous
 62
     7
370
     5
100
AcDbCircle
 10
3.703520482527641
 20
8.272526759493361
 30
0.0
 40
0.05
100
AcDbArc
 50
52.98520334159481
 51
150.0000000000013
  0
LINE
  5
136
330
1F
100
AcDbEntity
  8
0
  6
Continuous
 62
     7
370
     5
100
AcDbLine
 10
3.647621835602483
 20
8.275707462944632
 30
0.0
 11
3.66021921233842
 21
8.29752675949336
 31
0.0
  0
ARC
  5
137
330
1F
100
AcDbEntity
  8
0
  6
Continuous
 62
     7
370
     5
100
AcDbCircle
 10
3.690923105791704
 20
8.250707462944632
 30
0.0
 40
0.05
100
AcDbArc
 50
149.9999999999995
 51
232.7557239143259
  0
ARC
  5
138
330
1F
100
AcDbEntity
  8
0
  6
Continuous
 62
     7
370
     5
100
AcDbCircle
 10
3.225972959693449
 20
7.639140186915889
 30
0.0
 40
0.7182403084100749
100
AcDbArc
 50
38.34884466519664
 51
52.75572391432558
  0
ARC
  5
139
330
1F
100
AcDbEntity
  8
0
  6
Continuous
 62
     7
370
     5
100
AcDbCircle
 10
3.828463672787445
 20
8.115793218062755
 30
0.0
 40
0.0500000000000017
100
AcDbArc
 50
218.3488446651993
 51
301.1045685795228
  0
LINE
  5
13A
330
1F
100
AcDbEntity
  8
0
  6
Continuous
 62
     7
370
     5
100
AcDbLine
 10
3.875866153292069
 20
8.085997573338781
 30
0.0
 11
3.8542937529466
 21
8.072981923303407
 31
0.0
  0
ARC
  5
13B
330
1F
100
AcDbEntity
  8
0
  6
Continuous
 62
     7
370
     5
100
AcDbCircle
 10
3.571017609823772
 20
7.727786968676102
 30
0.0
 40
0.05
100
AcDbArc
 50
271.2249886383086
 51
14.40847012452836
  0
ARC
  5
13C
330
1F
100
AcDbEntity
  8
0
  6
Continuous
 62
     7
370
     5
100
AcDbCircle
 10
3.225972959693449
 20
7.639140186915889
 30
0.0
 40
0.4062499999999999
100
AcDbArc
 50
14.40847012452825
 51
44.22086501733665
  0
ARC
  5
13D
330
1F
100
AcDbEntity
  8
0
  6
Continuous
 62
     7
370
     5
100
AcDbCircle
 10
3.481281901305491
 20
7.887598245414579
 30
0.0
 40
0.0499999999999997
100
AcDbArc
 50
44.22086501733563
 51
150.0000000000004
  0
LINE
  5
13E
330
1F
100
AcDbEntity
  8
0
  6
Continuous
 62
     7
370
     5
100
AcDbLine
 10
3.424951767157669
 20
7.890031591073379
 30
0.0
 11
3.437980631116269
 21
7.912598245414579
 31
0.0
  0
ARC
  5
13F
330
1F
100
AcDbEntity
  8
0
  6
Continuous
 62
     7
370
     5
100
AcDbCircle
 10
3.46825303734689
 20
7.865031591073378
 30
0.0
 40
0.0500000000000003
100
AcDbArc
 50
149.9999999999995
 51
222.9951394081605
  0
ARC
  5
140
330
1F
100
AcDbEntity
  8
0
  6
Continuous
 62
     7
370
     5
100
AcDbCircle
 10
3.225972959693449
 20
7.639140186915889
 30
0.0
 40
0.2812499999999999
100
AcDbArc
 50
15.4235485133507
 51
42.99513940815957
  0
ARC
  5
141
330
1F
100
AcDbEntity
  8
0
  6
Continuous
 62
     7
370
     5
100
AcDbCircle
 10
3.545293381648326
 20
7.727236898673814
 30
0.0
 40
0.05
100
AcDbArc
 50
195.4235485133516
 51
271.2249886383091
  0
LINE
  5
142
330
1F
100
AcDbEntity
  8
0
  6
Continuous
 62
     7
370
     5
100
AcDbLine
 10
3.572086532635794
 20
7.677798395941707
 30
0.0
 11
3.546362304460349
 21
7.677248325939419
 31
0.0
  0
ARC
  5
143
330
1F
100
AcDbEntity
  8
0
  6
Continuous
 62
     7
370
     5
100
AcDbCircle
 10
4.03887863695091
 20
8.2427465237635
 30
0.0
 40
0.0500000000000014
100
AcDbArc
 50
301.1045685795224
 51
36.59497096272303
  0
ARC
  5
144
330
1F
100
AcDbEntity
  8
0
  6
Continuous
 62
     7
370
     5
100
AcDbCircle
 10
3.225972959693449
 20
7.639140186915889
 30
0.0
 40
1.062500000000001
100
AcDbArc
 50
36.59497096272281
 51
51.96090466079022
  0
ARC
  5
145
330
1F
100
AcDbEntity
  8
0
  6
Continuous
 62
     7
370
     5
100
AcDbCircle
 10
3.849874472609969
 20
8.436575546164824
 30
0.0
 40
0.0499999999999992
100
AcDbArc
 50
51.96090466078867
 51
105.0000000000001
  0
LINE
  5
146
330
1F
100
AcDbEntity
  8
0
  6
Continuous
 62
     7
370
     5
100
AcDbLine
 10
3.768340429063421
 20
8.466492374061385
 30
0.0
 11
3.836933520354843
 21
8.484871837479277
 31
0.0
  0
ARC
  5
147
330
1F
100
AcDbEntity
  8
0
  6
Continuous
 62
     7
370
     5
100
AcDbCircle
 10
3.776428524222874
 20
8.436307191989852
 30
0.0
 40
0.0312499999999995
100
AcDbArc
 50
105.0
 51
235.3743494204771
  0
ARC
  5
148
330
1F
100
AcDbEntity
  8
0
  6
Continuous
 62
     7
370
     5
100
AcDbCircle
 10
3.225972959693449
 20
7.639140186915889
 30
0.0
 40
0.9375000000000007
100
AcDbArc
 50
36.73441195749361
 51
55.37434942047728
  0
ARC
  5
149
330
1F
100
AcDbEntity
  8
0
  6
Continuous
 62
     7
370
     5
100
AcDbCircle
 10
4.017371817454369
 20
8.229770441757878
 30
0.0
 40
0.0500000000000009
100
AcDbArc
 50
216.7344119574947
 51
301.1045685795234
  0
LINE
  5
14A
330
1F
100
AcDbEntity
  8
0
  6
Continuous
 62
     7
370
     5
100
AcDbLine
 10
4.064708717110065
 20
8.199935229004152
 30
0.0
 11
4.043201897613524
 21
8.186959146998532
 31
0.0
  0
CIRCLE
  5
14B
330
1F
100
AcDbEntity
  8
0
  6
Continuous
 62
     7
370
     5
100
AcDbCircle
 10
3.780660459693453
 20
8.599887119239246
 30
0.0
 40
0.0962499999999999
  0
ARC
  5
14C
330
1F
100
AcDbEntity
  8
0
  6
Continuous
 62
     7
370
     5
100
AcDbCircle
 10
3.338006920315154
 20
6.853851336521382
 30
0.0
 40
0.0500000000000005
100
AcDbArc
 50
181.1045685795226
 51
278.1193652379286
  0
ARC
  5
14D
330
1F
100
AcDbEntity
  8
0
  6
Continuous
 62
     7
370
     5
100
AcDbCircle
 10
3.225972959693449
 20
7.639140186915889
 30
0.0
 40
0.8432403084100766
100
AcDbArc
 50
278.1193652379289
 51
292.9852033415945
  0
ARC
  5
14E
330
1F
100
AcDbEntity
  8
0
  6
Continuous
 62
     7
370
     5
100
AcDbCircle
 10
3.535728060544396
 20
6.90887861433841
 30
0.0
 40
0.05
100
AcDbArc
 50
292.9852033415948
 51
30.00000000000049
  0
LINE
  5
14F
330
1F
100
AcDbEntity
  8
0
  6
Continuous
 62
     7
370
     5
100
AcDbLine
 10
3.566431953997682
 20
6.955697910887138
 30
0.0
 11
3.579029330733618
 21
6.933878614338411
 31
0.0
  0
ARC
  5
150
330
1F
100
AcDbEntity
  8
0
  6
Continuous
 62
     7
370
     5
100
AcDbCircle
 10
3.52313068380846
 20
6.930697910887139
 30
0.0
 40
0.0500000000000001
100
AcDbArc
 50
29.99999999999936
 51
112.7557239143252
  0
ARC
  5
151
330
1F
100
AcDbEntity
  8
0
  6
Continuous
 62
     7
370
     5
100
AcDbCircle
 10
3.225972959693449
 20
7.639140186915889
 30
0.0
 40
0.7182403084100758
100
AcDbArc
 50
278.3488446651973
 51
292.7557239143261
  0
ARC
  5
152
330
1F
100
AcDbEntity
  8
0
  6
Continuous
 62
     7
370
     5
100
AcDbCircle
 10
3.337521236910488
 20
6.879041408258852
 30
0.0
 40
0.0500000000000001
100
AcDbArc
 50
98.34884466519628
 51
181.1045685795226
  0
LINE
  5
153
330
1F
100
AcDbEntity
  8
0
  6
Continuous
 62
     7
370
     5
100
AcDbLine
 10
3.288016211405079
 20
6.852887478301439
 30
0.0
 11
3.287530528000413
 21
6.878077550038909
 31
0.0
  0
ARC
  5
154
330
1F
100
AcDbEntity
  8
0
  6
Continuous
 62
     7
370
     5
100
AcDbCircle
 10
3.130220999596365
 20
7.295999363583009
 30
0.0
 40
0.05
100
AcDbArc
 50
151.2249886383081
 51
254.4084701245288
  0
ARC
  5
155
330
1F
100
AcDbEntity
  8
0
  6
Continuous
 62
     7
370
     5
100
AcDbCircle
 10
3.225972959693449
 20
7.639140186915889
 30
0.0
 40
0.4062500000000014
100
AcDbArc
 50
254.4084701245289
 51
284.2208650173372
  0
ARC
  5
156
330
1F
100
AcDbEntity
  8
0
  6
Continuous
 62
     7
370
     5
100
AcDbCircle
 10
3.313489479322251
 20
7.293807128417197
 30
0.0
 40
0.0500000000000017
100
AcDbArc
 50
284.2208650173371
 51
29.99999999999822
  0
LINE
  5
157
330
1F
100
AcDbEntity
  8
0
  6
Continuous
 62
     7
370
     5
100
AcDbLine
 10
3.343761885552873
 20
7.341373782758396
 30
0.0
 11
3.356790749511474
 21
7.318807128417195
 31
0.0
  0
ARC
  5
158
330
1F
100
AcDbEntity
  8
0
  6
Continuous
 62
     7
370
     5
100
AcDbCircle
 10
3.30046061536365
 20
7.316373782758397
 30
0.0
 40
0.0500000000000003
100
AcDbArc
 50
29.9999999999991
 51
102.9951394081596
  0
ARC
  5
159
330
1F
100
AcDbEntity
  8
0
  6
Continuous
 62
     7
370
     5
100
AcDbCircle
 10
3.225972959693449
 20
7.639140186915889
 30
0.0
 40
0.2812500000000008
100
AcDbArc
 50
255.4235485133513
 51
282.9951394081601
  0
ARC
  5
15A
330
1F
100
AcDbEntity
  8
0
  6
Continuous
 62
     7
370
     5
100
AcDbCircle
 10
3.142606739088246
 20
7.318552233676835
 30
0.0
 40
0.0500000000000015
100
AcDbArc
 50
75.42354851335034
 51
151.224988638307
  0
LINE
  5
15B
330
1F
100
AcDbEntity
  8
0
  6
Continuous
 62
     7
370
     5
100
AcDbLine
 10
3.086395164303441
 20
7.32006793564031
 30
0.0
 11
3.098780903795323
 21
7.342620805734138
 31
0.0
  0
ARC
  5
15C
330
1F
100
AcDbEntity
  8
0
  6
Continuous
 62
     7
370
     5
100
AcDbCircle
 10
3.342258542660011
 20
6.633340051106528
 30
0.0
 40
0.0500000000000005
100
AcDbArc
 50
181.1045685795236
 51
276.5949709627234
  0
ARC
  5
15D
330
1F
100
AcDbEntity
  8
0
  6
Continuous
 62
     7
370
     5
100
AcDbCircle
 10
3.225972959693449
 20
7.639140186915889
 30
0.0
 40
1.062500000000001
100
AcDbArc
 50
276.5949709627233
 51
291.9609046607907
  0
ARC
  5
15E
330
1F
100
AcDbEntity
  8
0
  6
Continuous
 62
     7
370
     5
100
AcDbCircle
 10
3.604621482220732
 20
6.700107947646167
 30
0.0
 40
0.0500000000000008
100
AcDbArc
 50
291.9609046607902
 51
345.0000000000003
  0
LINE
  5
15F
330
1F
100
AcDbEntity
  8
0
  6
Continuous
 62
     7
370
     5
100
AcDbLine
 10
3.671297236953077
 20
6.755760086682464
 30
0.0
 11
3.652917773535186
 21
6.687166995391041
 31
0.0
  0
ARC
  5
160
330
1F
100
AcDbEntity
  8
0
  6
Continuous
 62
     7
370
     5
100
AcDbCircle
 10
3.641112054881543
 20
6.763848181841917
 30
0.0
 40
0.0312500000000003
100
AcDbArc
 50
345.0000000000014
 51
115.374349420476
  0
ARC
  5
161
330
1F
100
AcDbEntity
  8
0
  6
Continuous
 62
     7
370
     5
100
AcDbCircle
 10
3.225972959693449
 20
7.639140186915889
 30
0.0
 40
0.9375000000000014
100
AcDbArc
 50
276.7344119574941
 51
295.3743494204778
  0
ARC
  5
162
330
1F
100
AcDbEntity
  8
0
  6
Continuous
 62
     7
370
     5
100
AcDbCircle
 10
3.341774335749823
 20
6.658453544147948
 30
0.0
 40
0.0500000000000007
100
AcDbArc
 50
96.73441195749326
 51
181.1045685795226
  0
LINE
  5
163
330
1F
100
AcDbEntity
  8
0
  6
Continuous
 62
     7
370
     5
100
AcDbLine
 10
3.292267833749936
 20
6.632376192886584
 30
0.0
 11
3.291783626839748
 21
6.657489685928005
 31
0.0
  0
ARC
  5
164
330
1F
100
AcDbEntity
  8
0
  6
Continuous
 62
     7
370
     5
100
AcDbCircle
 10
2.489875885632278
 20
7.934760356128164
 30
0.0
 40
0.0500000000000003
100
AcDbArc
 50
61.10456857952176
 51
158.1193652379291
  0
ARC
  5
165
330
1F
100
AcDbEntity
  8
0
  6
Continuous
 62
     7
370
     5
100
AcDbCircle
 10
3.225972959693449
 20
7.639140186915889
 30
0.0
 40
0.843240308410075
100
AcDbArc
 50
158.1193652379279
 51
172.9852033415934
  0
ARC
  5
166
330
1F
100
AcDbEntity
  8
0
  6
Continuous
 62
     7
370
     5
100
AcDbCircle
 10
2.438670336008307
 20
7.736015186915899
 30
0.0
 40
0.0500000000000002
100
AcDbArc
 50
172.9852033415939
 51
269.9999999999993
  0
LINE
  5
167
330
1F
100
AcDbEntity
  8
0
  6
Continuous
 62
     7
370
     5
100
AcDbLine
 10
2.463865089480179
 20
7.686015186915899
 30
0.0
 11
2.438670336008305
 21
7.686015186915899
 31
0.0
  0
ARC
  5
168
330
1F
100
AcDbEntity
  8
0
  6
Continuous
 62
     7
370
     5
100
AcDbCircle
 10
2.463865089480179
 20
7.736015186915899
 30
0.0
 40
0.0500000000000007
100
AcDbArc
 50
269.9999999999998
 51
352.7557239143264
  0
ARC
  5
169
330
1F
100
AcDbEntity
  8
0
  6
Continuous
 62
     7
370
     5
100
AcDbCircle
 10
3.225972959693449
 20
7.639140186915889
 30
0.0
 40
0.7182403084100754
100
AcDbArc
 50
158.3488446651962
 51
172.755723914325
  0
ARC
  5
16A
330
1F
100
AcDbEntity
  8
0
  6
Continuous
 62
     7
370
     5
100
AcDbCircle
 10
2.511933969382412
 20
7.922585934426065
 30
0.0
 40
0.0500000000000003
100
AcDbArc
 50
338.3488446651973
 51
61.10456857952229
  0
LINE
  5
16B
330
1F
100
AcDbEntity
  8
0
  6
Continuous
 62
     7
370
     5
100
AcDbLine
 10
2.514036514383198
 20
7.978535509107452
 30
0.0
 11
2.536094598133332
 21
7.966361087405354
 31
0.0
  0
ARC
  5
16C
330
1F
100
AcDbEntity
  8
0
  6
Continuous
 62
     7
370
     5
100
AcDbCircle
 10
3.225972959693449
 20
7.639140186915889
 30
0.0
 40
0.5000000000000005
100
AcDbArc
 50
310.1447942263124
 51
350.2797697834357
  0
ARC
  5
16D
330
1F
100
AcDbEntity
  8
0
  6
Continuous
 62
     7
370
     5
100
AcDbCircle
 10
3.225972959693449
 20
7.639140186915889
 30
0.0
 40
0.7182403084100755
100
AcDbArc
 50
187.2442760856741
 51
201.6511553348031
  0
LINE
  5
16E
330
1F
100
AcDbEntity
  8
0
  6
Continuous
 62
     7
370
     5
100
AcDbLine
 10
2.463865089480178
 20
7.592265186915899
 30
0.0
 11
2.438670336008304
 21
7.592265186915899
 31
0.0
  0
ARC
  5
16F
330
1F
100
AcDbEntity
  8
0
  6
Continuous
 62
     7
370
     5
100
AcDbCircle
 10
3.225972959693449
 20
7.639140186915889
 30
0.0
 40
0.8432403084100757
100
AcDbArc
 50
187.0147966584057
 51
201.8806347620713
  0
LINE
  5
170
330
1F
100
AcDbEntity
  8
0
  6
Continuous
 62
     7
370
     5
100
AcDbLine
 10
2.514036514383188
 20
7.299744864724345
 30
0.0
 11
2.536094598133323
 21
7.311919286426442
 31
0.0
  0
ARC
  5
171
330
1F
100
AcDbEntity
  8
0
  6
Continuous
 62
     7
370
     5
100
AcDbCircle
 10
2.394662911956005
 20
6.765090607640908
 30
0.0
 40
0.0500000000000003
100
AcDbArc
 50
327.7908628409538
 51
46.4356398704811
  0
ARC
  5
172
330
1F
100
AcDbEntity
  8
0
  6
Continuous
 62
     7
370
     5
100
AcDbCircle
 10
3.225972959693449
 20
7.639140186915889
 30
0.0
 40
1.156250000000001
100
AcDbArc
 50
213.5018668136067
 51
226.435639870483
  0
ARC
  5
173
330
1F
100
AcDbEntity
  8
0
  6
Continuous
 62
     7
370
     5
100
AcDbCircle
 10
2.220119879636186
 20
6.973333425280563
 30
0.0
 40
0.0500000000000002
100
AcDbArc
 50
33.50186681360417
 51
118.8954314204754
  0
LINE
  5
174
330
1F
100
AcDbEntity
  8
0
  6
Continuous
 62
     7
370
     5
100
AcDbLine
 10
2.195959250885267
 20
7.017108578259854
 30
0.0
 11
2.127636222609484
 21
6.979399348046753
 31
0.0
  0
ARC
  5
175
330
1F
100
AcDbEntity
  8
0
  6
Continuous
 62
     7
370
     5
100
AcDbCircle
 10
3.225972959693449
 20
7.639140186915889
 30
0.0
 40
1.28125
100
AcDbArc
 50
206.7987764626879
 51
210.9920863782663
  0
LINE
  5
176
330
1F
100
AcDbEntity
  8
0
  6
Continuous
 62
     7
370
     5
100
AcDbLine
 10
2.08233504370151
 20
7.061477759882922
 30
0.0
 11
2.150658071977293
 21
7.099186990096023
 31
0.0
  0
ARC
  5
177
330
1F
100
AcDbEntity
  8
0
  6
Continuous
 62
     7
370
     5
100
AcDbCircle
 10
2.126497443226374
 20
7.142962143075312
 30
0.0
 40
0.0500000000000007
100
AcDbArc
 50
298.8954314204777
 51
24.28899602734777
  0
ARC
  5
178
330
1F
100
AcDbEntity
  8
0
  6
Continuous
 62
     7
370
     5
100
AcDbCircle
 10
3.225972959693449
 20
7.639140186915889
 30
0.0
 40
1.15625
100
AcDbArc
 50
191.3552229704712
 51
204.2889960273476
  0
ARC
  5
179
330
1F
100
AcDbEntity
  8
0
  6
Continuous
 62
     7
370
     5
100
AcDbCircle
 10
2.043334886359087
 20
7.401640186915905
 30
0.0
 40
0.0500000000000007
100
AcDbArc
 50
11.35522297047073
 51
89.99999999999849
  0
LINE
  5
17A
330
1F
100
AcDbEntity
  8
0
  6
Continuous
 62
     7
370
     5
100
AcDbLine
 10
2.043334886359088
 20
7.451640186915905
 30
0.0
 11
1.958516722776367
 21
7.451640186915907
 31
0.0
  0
ARC
  5
17B
330
1F
100
AcDbEntity
  8
0
  6
Continuous
 62
     7
370
     5
100
AcDbCircle
 10
3.225972959693449
 20
7.639140186915889
 30
0.0
 40
1.28125
100
AcDbArc
 50
149.0079136217329
 51
153.2012235373113
  0
ARC
  5
17C
330
1F
100
AcDbEntity
  8
0
  6
Continuous
 62
     7
370
     5
100
AcDbCircle
 10
3.225972959693449
 20
7.639140186915889
 30
0.0
 40
1.28125
100
AcDbArc
 50
109.3758947562309
 51
130.6241052437679
  0
LINE
  5
17D
330
1F
100
AcDbEntity
  8
0
  6
Continuous
 62
     7
370
     5
100
AcDbLine
 10
2.800899983942318
 20
8.847823159322665
 30
0.0
 11
2.840446076728881
 21
8.772788317956392
 31
0.0
  0
ARC
  5
17E
330
1F
100
AcDbEntity
  8
0
  6
Continuous
 62
     7
370
     5
100
AcDbCircle
 10
2.884678843742926
 20
8.796100596315255
 30
0.0
 40
0.0499999999999996
100
AcDbArc
 50
207.7908628409539
 51
286.4356398704842
  0
ARC
  5
17F
330
1F
100
AcDbEntity
  8
0
  6
Continuous
 62
     7
370
     5
100
AcDbCircle
 10
3.225972959693449
 20
7.639140186915889
 30
0.0
 40
1.156250000000001
100
AcDbArc
 50
93.50186681360636
 51
106.4356398704827
  0
ARC
  5
180
330
1F
100
AcDbEntity
  8
0
  6
Continuous
 62
     7
370
     5
100
AcDbCircle
 10
3.152293930134427
 20
8.843137887537963
 30
0.0
 40
0.0499999999999996
100
AcDbArc
 50
273.5018668136064
 51
358.895431420478
  0
LINE
  5
181
330
1F
100
AcDbEntity
  8
0
  6
Continuous
 62
     7
370
     5
100
AcDbLine
 10
3.202284639044501
 20
8.842174029318019
 30
0.0
 11
3.203789001860692
 21
8.92019812257488
 31
0.0
  0
ARC
  5
182
330
1F
100
AcDbEntity
  8
0
  6
Continuous
 62
     7
370
     5
100
AcDbCircle
 10
3.225972959693449
 20
7.639140186915889
 30
0.0
 40
1.281250000000001
100
AcDbArc
 50
86.79877646268762
 51
90.99208637826604
  0
LINE
  5
183
330
1F
100
AcDbEntity
  8
0
  6
Continuous
 62
     7
370
     5
100
AcDbLine
 10
3.297521581067082
 20
8.918390888412485
 30
0.0
 11
3.296017218250892
 21
8.840366795155624
 31
0.0
  0
ARC
  5
184
330
1F
100
AcDbEntity
  8
0
  6
Continuous
 62
     7
370
     5
100
AcDbCircle
 10
3.346007927160967
 20
8.83940293693568
 30
0.0
 40
0.0500000000000003
100
AcDbArc
 50
178.8954314204772
 51
264.2889960273482
  0
ARC
  5
185
330
1F
100
AcDbEntity
  8
0
  6
Continuous
 62
     7
370
     5
100
AcDbCircle
 10
3.225972959693449
 20
7.639140186915889
 30
0.0
 40
1.156250000000001
100
AcDbArc
 50
71.35522297047102
 51
84.28899602734736
  0
ARC
  5
186
330
1F
100
AcDbEntity
  8
0
  6
Continuous
 62
     7
370
     5
100
AcDbCircle
 10
3.611610962961829
 20
8.782084801906124
 30
0.0
 40
0.05
100
AcDbArc
 50
251.3552229704714
 51
330.0000000000003
  0
LINE
  5
187
330
1F
100
AcDbEntity
  8
0
  6
Continuous
 62
     7
370
     5
100
AcDbLine
 10
3.65491223315105
 20
8.757084801906124
 30
0.0
 11
3.697321314942412
 21
8.830539486271105
 31
0.0
  0
ARC
  5
188
330
1F
100
AcDbEntity
  8
0
  6
Continuous
 62
     7
370
     5
100
AcDbCircle
 10
3.225972959693449
 20
7.639140186915889
 30
0.0
 40
1.28125
100
AcDbArc
 50
51.58503191527668
 51
68.41496808472275
  0
LINE
  5
189
330
1F
100
AcDbEntity
  8
0
  6
Continuous
 62
     7
370
     5
100
AcDbLine
 10
3.979671759570214
 20
8.569584801906122
 30
0.0
 11
4.022080841361575
 21
8.643039486271103
 31
0.0
  0
ARC
  5
18A
330
1F
100
AcDbEntity
  8
0
  6
Continuous
 62
     7
370
     5
100
AcDbCircle
 10
4.022973029759437
 20
8.544584801906122
 30
0.0
 40
0.0500000000000004
100
AcDbArc
 50
149.9999999999998
 51
228.6447770295289
  0
ARC
  5
18B
330
1F
100
AcDbEntity
  8
0
  6
Continuous
 62
     7
370
     5
100
AcDbCircle
 10
3.225972959693449
 20
7.639140186915889
 30
0.0
 40
1.156250000000001
100
AcDbArc
 50
35.7110039726521
 51
48.64477702952843
  0
ARC
  5
18C
330
1F
100
AcDbEntity
  8
0
  6
Continuous
 62
     7
370
     5
100
AcDbCircle
 10
4.205413508693007
 20
8.343224893095085
 30
0.0
 40
0.0500000000000014
100
AcDbArc
 50
215.7110039726524
 51
301.1045685795224
  0
LINE
  5
18D
330
1F
100
AcDbEntity
  8
0
  6
Continuous
 62
     7
370
     5
100
AcDbLine
 10
4.298062254311755
 20
8.340728461379496
 30
0.0
 11
4.231243588852162
 21
8.300413598335737
 31
0.0
  0
ARC
  5
18E
330
1F
100
AcDbEntity
  8
0
  6
Continuous
 62
     7
370
     5
100
AcDbCircle
 10
3.225972959693449
 20
7.639140186915889
 30
0.0
 40
1.28125
100
AcDbArc
 50
29.00791362173331
 51
33.20122353731178
  0
ARC
  5
18F
330
1F
100
AcDbEntity
  8
0
  6
Continuous
 62
     7
370
     5
100
AcDbCircle
 10
4.305505069309734
 20
8.177331125902618
 30
0.0
 40
0.0500000000000015
100
AcDbArc
 50
121.1045685795235
 51
206.4981331863955
  0
ARC
  5
190
330
1F
100
AcDbEntity
  8
0
  6
Continuous
 62
     7
370
     5
100
AcDbCircle
 10
3.225972959693449
 20
7.639140186915889
 30
0.0
 40
1.15625
100
AcDbArc
 50
13.56436012951667
 51
26.49813318639303
  0
ARC
  5
191
330
1F
100
AcDbEntity
  8
0
  6
Continuous
 62
     7
370
     5
100
AcDbCircle
 10
4.398577123381411
 20
7.922051017040256
 30
0.0
 40
0.0500000000000009
100
AcDbArc
 50
193.5643601295185
 51
272.2091371590455
  0
LINE
  5
192
330
1F
100
AcDbEntity
  8
0
  6
Continuous
 62
     7
370
     5
100
AcDbLine
 10
4.48525960679497
 20
7.875357677656539
 30
0.0
 11
4.400504481609561
 21
7.872088177946982
 31
0.0
  0
ARC
  5
193
330
1F
100
AcDbEntity
  8
0
  6
Continuous
 62
     7
370
     5
100
AcDbCircle
 10
3.225972959693449
 20
7.639140186915889
 30
0.0
 40
1.281250000000001
100
AcDbArc
 50
326.7987764626882
 51
330.9920863782666
  0
ARC
  5
194
330
1F
100
AcDbEntity
  8
0
  6
Continuous
 62
     7
370
     5
100
AcDbCircle
 10
4.022973029759423
 20
6.733695571925642
 30
0.0
 40
0.0500000000000002
100
AcDbArc
 50
131.3552229704698
 51
209.9999999999998
  0
LINE
  5
195
330
1F
100
AcDbEntity
  8
0
  6
Continuous
 62
     7
370
     5
100
AcDbLine
 10
3.654912233151034
 20
6.521195571925646
 30
0.0
 11
3.697321314942395
 21
6.447740887560665
 31
0.0
  0
ARC
  5
196
330
1F
100
AcDbEntity
  8
0
  6
Continuous
 62
     7
370
     5
100
AcDbCircle
 10
3.611610962961812
 20
6.496195571925647
 30
0.0
 40
0.0499999999999996
100
AcDbArc
 50
29.99999999999872
 51
108.6447770295281
  0
ARC
  5
197
330
1F
100
AcDbEntity
  8
0
  6
Continuous
 62
     7
370
     5
100
AcDbCircle
 10
3.225972959693449
 20
7.639140186915889
 30
0.0
 40
1.156250000000001
100
AcDbArc
 50
275.7110039726526
 51
288.644777029529
  0
ARC
  5
198
330
1F
100
AcDbEntity
  8
0
  6
Continuous
 62
     7
370
     5
100
AcDbCircle
 10
3.34600792716095
 20
6.438877436896095
 30
0.0
 40
0.0500000000000003
100
AcDbArc
 50
95.71100397265162
 51
181.1045685795236
  0
LINE
  5
199
330
1F
100
AcDbEntity
  8
0
  6
Continuous
 62
     7
370
     5
100
AcDbLine
 10
3.297521581067063
 20
6.359889485419291
 30
0.0
 11
3.296017218250875
 21
6.437913578676151
 31
0.0
  0
ARC
  5
19A
330
1F
100
AcDbEntity
  8
0
  6
Continuous
 62
     7
370
     5
100
AcDbCircle
 10
3.225972959693449
 20
7.639140186915889
 30
0.0
 40
1.281250000000001
100
AcDbArc
 50
269.0079136217339
 51
273.2012235373123
  0
LINE
  5
19B
330
1F
100
AcDbEntity
  8
0
  6
Continuous
 62
     7
370
     5
100
AcDbLine
 10
3.202284639044485
 20
6.436106344513758
 30
0.0
 11
3.203789001860674
 21
6.358082251256897
 31
0.0
  0
ARC
  5
19C
330
1F
100
AcDbEntity
  8
0
  6
Continuous
 62
     7
370
     5
100
AcDbCircle
 10
3.152293930134409
 20
6.435142486293814
 30
0.0
 40
0.0500000000000005
100
AcDbArc
 50
1.104568579522814
 51
86.4981331863934
  0
ARC
  5
19D
330
1F
100
AcDbEntity
  8
0
  6
Continuous
 62
     7
370
     5
100
AcDbCircle
 10
3.225972959693449
 20
7.639140186915889
 30
0.0
 40
1.156250000000002
100
AcDbArc
 50
253.5643601295173
 51
266.4981331863936
  0
ARC
  5
19E
330
1F
100
AcDbEntity
  8
0
  6
Continuous
 62
     7
370
     5
100
AcDbCircle
 10
2.884678843742909
 20
6.482179777516525
 30
0.0
 40
0.0500000000000004
100
AcDbArc
 50
73.56436012951691
 51
152.2091371590439
  0
LINE
  5
19F
330
1F
100
AcDbEntity
  8
0
  6
Continuous
 62
     7
370
     5
100
AcDbLine
 10
2.800899983942301
 20
6.430457214509118
 30
0.0
 11
2.840446076728864
 21
6.505492055875391
 31
0.0
  0
LINE
  5
1A0
330
1F
100
AcDbEntity
  8
0
  6
Continuous
 62
     7
370
     5
100
AcDbLine
 10
2.39175928834305
 20
6.666674705249783
 30
0.0
 11
2.436968320741899
 21
6.738440046906498
 31
0.0
  0
ARC
  5
1A1
330
1F
100
AcDbEntity
  8
0
  6
Continuous
 62
     7
370
     5
100
AcDbCircle
 10
3.225972959693449
 20
7.639140186915889
 30
0.0
 40
0.937500000000001
100
AcDbArc
 50
214.5252747984481
 51
233.1652122614319
  0
ARC
  5
1A2
330
1F
100
AcDbEntity
  8
0
  6
Continuous
 62
     7
370
     5
100
AcDbCircle
 10
2.412395162285954
 20
7.079455081195207
 30
0.0
 40
0.0500000000000004
100
AcDbArc
 50
34.52527479844746
 51
118.8954314204764
  0
LINE
  5
1A3
330
1F
100
AcDbEntity
  8
0
  6
Continuous
 62
     7
370
     5
100
AcDbLine
 10
2.388234533535035
 20
7.123230234174497
 30
0.0
 11
2.366243507128306
 21
7.111092823138697
 31
0.0
  0
ARC
  5
1A4
330
1F
100
AcDbEntity
  8
0
  6
Continuous
 62
     7
370
     5
100
AcDbCircle
 10
2.390404135879225
 20
7.067317670159407
 30
0.0
 40
0.0500000000000004
100
AcDbArc
 50
118.8954314204758
 51
214.385833803678
  0
ARC
  5
1A5
330
1F
100
AcDbEntity
  8
0
  6
Continuous
 62
     7
370
     5
100
AcDbCircle
 10
3.225972959693449
 20
7.639140186915889
 30
0.0
 40
1.062500000000001
100
AcDbArc
 50
214.3858338036774
 51
229.7517675017448
  0
ARC
  5
1A6
330
1F
100
AcDbEntity
  8
0
  6
Continuous
 62
     7
370
     5
100
AcDbCircle
 10
2.57179626967413
 20
6.866347130376578
 30
0.0
 40
0.049999999999999
100
AcDbArc
 50
229.7517675017445
 51
282.7908628409552
  0
LINE
  5
1A7
330
1F
100
AcDbEntity
  8
0
  6
Continuous
 62
     7
370
     5
100
AcDbLine
 10
2.582865918889779
 20
6.81758789672548
 30
0.0
 11
2.652116506752801
 21
6.833309631014956
 31
0.0
  0
ARC
  5
1A8
330
1F
100
AcDbEntity
  8
0
  6
Continuous
 62
     7
370
     5
100
AcDbCircle
 10
2.645197975993021
 20
6.863784152046894
 30
0.0
 40
0.0312500000000013
100
AcDbArc
 50
282.7908628409529
 51
53.16521226143017
  0
ARC
  5
1A9
330
1F
100
AcDbEntity
  8
0
  6
Continuous
 62
     7
370
     5
100
AcDbCircle
 10
3.225972959693449
 20
7.639140186915889
 30
0.0
 40
0.281250000000001
100
AcDbArc
 50
197.00486059184
 51
224.5764514866491
  0
ARC
  5
1AA
330
1F
100
AcDbEntity
  8
0
  6
Continuous
 62
     7
370
     5
100
AcDbCircle
 10
2.909205226369802
 20
7.542265186915893
 30
0.0
 40
0.0500000000000001
100
AcDbArc
 50
17.00486059183916
 51
89.99999999999948
  0
LINE
  5
1AB
330
1F
100
AcDbEntity
  8
0
  6
Continuous
 62
     7
370
     5
100
AcDbLine
 10
2.909205226369802
 20
7.592265186915893
 30
0.0
 11
2.8831474984526
 21
7.592265186915893
 31
0.0
  0
ARC
  5
1AC
330
1F
100
AcDbEntity
  8
0
  6
Continuous
 62
     7
370
     5
100
AcDbCircle
 10
2.883147498452599
 20
7.542265186915893
 30
0.0
 40
0.0500000000000004
100
AcDbArc
 50
89.99999999999948
 51
195.7791349826639
  0
ARC
  5
1AD
330
1F
100
AcDbEntity
  8
0
  6
Continuous
 62
     7
370
     5
100
AcDbCircle
 10
3.225972959693449
 20
7.639140186915889
 30
0.0
 40
0.4062500000000008
100
AcDbArc
 50
195.7791349826631
 51
225.5915298754714
  0
ARC
  5
1AE
330
1F
100
AcDbEntity
  8
0
  6
Continuous
 62
     7
370
     5
100
AcDbCircle
 10
2.976680269660203
 20
7.384646145343226
 30
0.0
 40
0.0499999999999999
100
AcDbArc
 50
225.5915298754705
 51
328.7750113616928
  0
LINE
  5
1AF
330
1F
100
AcDbEntity
  8
0
  6
Continuous
 62
     7
370
     5
100
AcDbLine
 10
3.019437182141103
 20
7.358726144666133
 30
0.0
 11
3.032775670824668
 21
7.380728944757671
 31
0.0
  0
ARC
  5
1B0
330
1F
100
AcDbEntity
  8
0
  6
Continuous
 62
     7
370
     5
100
AcDbCircle
 10
2.990018758343767
 20
7.406648945434764
 30
0.0
 40
0.0499999999999998
100
AcDbArc
 50
328.7750113616925
 51
44.57645148664872
  0
ARC
  5
1B1
330
1F
100
AcDbEntity
  8
0
  6
Continuous
 62
     7
370
     5
100
AcDbCircle
 10
3.225972959693449
 20
7.639140186915889
 30
0.0
 40
0.5000000000000009
100
AcDbArc
 50
190.1447942263122
 51
230.2797697834355
  0
ARC
  5
1B2
330
1F
100
AcDbEntity
  8
0
  6
Continuous
 62
     7
370
     5
100
AcDbCircle
 10
2.684571782769163
 20
7.542265186915895
 30
0.0
 40
0.0500000000000016
100
AcDbArc
 50
10.1447942263122
 51
89.99999999999948
  0
LINE
  5
1B3
330
1F
100
AcDbEntity
  8
0
  6
Continuous
 62
     7
370
     5
100
AcDbLine
 10
2.684571782769164
 20
7.592265186915897
 30
0.0
 11
2.659192372186253
 21
7.592265186915897
 31
0.0
  0
ARC
  5
1B4
330
1F
100
AcDbEntity
  8
0
  6
Continuous
 62
     7
370
     5
100
AcDbCircle
 10
2.659192372186253
 20
7.542265186915897
 30
0.0
 40
0.0500000000000004
100
AcDbArc
 50
90.0
 51
189.6993537065376
  0
ARC
  5
1B5
330
1F
100
AcDbEntity
  8
0
  6
Continuous
 62
     7
370
     5
100
AcDbCircle
 10
3.225972959693449
 20
7.639140186915889
 30
0.0
 40
0.6250000000000009
100
AcDbArc
 50
189.6993537065374
 51
230.651681102062
  0
ARC
  5
1B6
330
1F
100
AcDbEntity
  8
0
  6
Continuous
 62
     7
370
     5
100
AcDbCircle
 10
2.861403843683796
 20
7.1944893580041
 30
0.0
 40
0.0500000000000003
100
AcDbArc
 50
230.651681102062
 51
328.775011361691
  0
LINE
  5
1B7
330
1F
100
AcDbEntity
  8
0
  6
Continuous
 62
     7
370
     5
100
AcDbLine
 10
2.904160756164697
 20
7.168569357327005
 30
0.0
 11
2.917258180020993
 21
7.190174503581642
 31
0.0
  0
ARC
  5
1B8
330
1F
100
AcDbEntity
  8
0
  6
Continuous
 62
     7
370
     5
100
AcDbCircle
 10
2.874501267540092
 20
7.216094504258736
 30
0.0
 40
0.0499999999999998
100
AcDbArc
 50
328.7750113616919
 51
50.27976978343474
  0
ARC
  5
1B9
330
1F
100
AcDbEntity
  8
0
  6
Continuous
 62
     7
370
     5
100
AcDbCircle
 10
3.225972959693449
 20
7.639140186915889
 30
0.0
 40
0.937500000000001
100
AcDbArc
 50
184.6256505795224
 51
203.2655880425061
  0
ARC
  5
1BA
330
1F
100
AcDbEntity
  8
0
  6
Continuous
 62
     7
370
     5
100
AcDbCircle
 10
2.260378299975923
 20
7.561015186915901
 30
0.0
 40
0.0312500000000003
100
AcDbArc
 50
4.625650579523126
 51
134.9999999999977
  0
LINE
  5
1BB
330
1F
100
AcDbEntity
  8
0
  6
Continuous
 62
     7
370
     5
100
AcDbLine
 10
2.238281213063844
 20
7.583112273827982
 30
0.0
 11
2.188067585190311
 21
7.532898645954452
 31
0.0
  0
ARC
  5
1BC
330
1F
100
AcDbEntity
  8
0
  6
Continuous
 62
     7
370
     5
100
AcDbCircle
 10
2.223422924249638
 20
7.497543306895124
 30
0.0
 40
0.0500000000000002
100
AcDbArc
 50
134.9999999999996
 51
188.0390953392111
  0
ARC
  5
1BD
330
1F
100
AcDbEntity
  8
0
  6
Continuous
 62
     7
370
     5
100
AcDbCircle
 10
3.225972959693449
 20
7.639140186915889
 30
0.0
 40
1.062500000000001
100
AcDbArc
 50
188.0390953392095
 51
203.4050290372769
  0
ARC
  5
1BE
330
1F
100
AcDbEntity
  8
0
  6
Continuous
 62
     7
370
     5
100
AcDbCircle
 10
2.296781699469413
 20
7.236946387954157
 30
0.0
 40
0.0500000000000006
100
AcDbArc
 50
203.4050290372774
 51
298.8954314204767
  0
LINE
  5
1BF
330
1F
100
AcDbEntity
  8
0
  6
Continuous
 62
     7
370
     5
100
AcDbLine
 10
2.320942328220332
 20
7.193171234974866
 30
0.0
 11
2.342933354627061
 21
7.205308646010665
 31
0.0
  0
ARC
  5
1C0
330
1F
100
AcDbEntity
  8
0
  6
Continuous
 62
     7
370
     5
100
AcDbCircle
 10
2.318772725876142
 20
7.249083798989956
 30
0.0
 40
0.0500000000000002
100
AcDbArc
 50
298.8954314204763
 51
23.26558804250552
  0
ARC
  5
1C1
330
1F
100
AcDbEntity
  8
0
  6
Continuous
 62
     7
370
     5
100
AcDbCircle
 10
3.225972959693449
 20
7.639140186915889
 30
0.0
 40
0.7182403084100756
100
AcDbArc
 50
216.1397075061512
 51
230.5465867552801
  0
ARC
  5
1C2
330
1F
100
AcDbEntity
  8
0
  6
Continuous
 62
     7
370
     5
100
AcDbCircle
 10
2.605556405792216
 20
7.186065721610982
 30
0.0
 40
0.0500000000000003
100
AcDbArc
 50
36.13970750615158
 51
118.8954314204754
  0
LINE
  5
1C3
330
1F
100
AcDbEntity
  8
0
  6
Continuous
 62
     7
370
     5
100
AcDbLine
 10
2.581395777041297
 20
7.229840874590273
 30
0.0
 11
2.559337693291162
 21
7.217666452888177
 31
0.0
  0
ARC
  5
1C4
330
1F
100
AcDbEntity
  8
0
  6
Continuous
 62
     7
370
     5
100
AcDbCircle
 10
2.583498322042081
 20
7.173891299908886
 30
0.0
 40
0.0500000000000006
100
AcDbArc
 50
118.8954314204763
 51
215.9102280788828
  0
ARC
  5
1C5
330
1F
100
AcDbEntity
  8
0
  6
Continuous
 62
     7
370
     5
100
AcDbCircle
 10
3.225972959693449
 20
7.639140186915889
 30
0.0
 40
0.8432403084100755
100
AcDbArc
 50
215.9102280788829
 51
230.7760661825484
  0
ARC
  5
1C6
330
1F
100
AcDbEntity
  8
0
  6
Continuous
 62
     7
370
     5
100
AcDbCircle
 10
2.72436510239316
 20
7.024632461674679
 30
0.0
 40
0.0499999999999998
100
AcDbArc
 50
230.776066182548
 51
327.7908628409547
  0
LINE
  5
1C7
330
1F
100
AcDbEntity
  8
0
  6
Continuous
 62
     7
370
     5
100
AcDbLine
 10
2.766670511179054
 20
6.99798190094027
 30
0.0
 11
2.780099597330866
 21
7.019299387838018
 31
0.0
  0
ARC
  5
1C8
330
1F
100
AcDbEntity
  8
0
  6
Continuous
 62
     7
370
     5
100
AcDbCircle
 10
2.737794188544973
 20
7.045949948572427
 30
0.0
 40
0.0500000000000011
100
AcDbArc
 50
327.7908628409553
 51
50.54658675528031
  0
ARC
  5
1C9
330
1F
100
AcDbEntity
  8
0
  6
Continuous
 62
     7
370
     5
100
AcDbCircle
 10
3.225972959693449
 20
7.639140186915889
 30
0.0
 40
1.281250000000001
100
AcDbArc
 50
291.5850319152772
 51
308.4149680847233
  0
ARC
  5
1CA
330
1F
100
AcDbEntity
  8
0
  6
Continuous
 62
     7
370
     5
100
AcDbCircle
 10
2.463865089480177
 20
7.542265186915899
 30
0.0
 40
0.0499999999999998
100
AcDbArc
 50
7.244276085674457
 51
89.99999999999898
  0
ARC
  5
1CB
330
1F
100
AcDbEntity
  8
0
  6
Continuous
 62
     7
370
     5
100
AcDbCircle
 10
3.225972959693449
 20
7.639140186915889
 30
0.0
 40
1.281250000000001
100
AcDbArc
 50
349.3758947562315
 51
10.62410524376849
  0
ARC
  5
1CC
330
1F
100
AcDbEntity
  8
0
  6
Continuous
 62
     7
370
     5
100
AcDbCircle
 10
2.438670336008303
 20
7.5422651869159
 30
0.0
 40
0.0500000000000004
100
AcDbArc
 50
89.99999999999898
 51
187.0147966584048
  0
ARC
  5
1CD
330
1F
100
AcDbEntity
  8
0
  6
Continuous
 62
     7
370
     5
100
AcDbCircle
 10
3.225972959693449
 20
7.639140186915889
 30
0.0
 40
1.281250000000001
100
AcDbArc
 50
171.5850319152762
 51
188.414968084723
  0
ARC
  5
1CE
330
1F
100
AcDbEntity
  8
0
  6
Continuous
 62
     7
370
     5
100
AcDbCircle
 10
2.489875885632269
 20
7.343520017703635
 30
0.0
 40
0.05
100
AcDbArc
 50
201.8806347620707
 51
298.8954314204772
  0
ARC
  5
1CF
330
1F
100
AcDbEntity
  8
0
  6
Continuous
 62
     7
370
     5
100
AcDbCircle
 10
3.225972959693449
 20
7.639140186915889
 30
0.0
 40
1.28125
100
AcDbArc
 50
229.3758947562312
 51
250.624105243769
  0
ARC
  5
1D0
330
1F
100
AcDbEntity
  8
0
  6
Continuous
 62
     7
370
     5
100
AcDbCircle
 10
2.511933969382404
 20
7.355694439405731
 30
0.0
 40
0.0500000000000003
100
AcDbArc
 50
298.8954314204772
 51
21.65115533480236
  0
ARC
  5
1D1
330
1F
100
AcDbEntity
  8
0
  6
Continuous
 62
     7
370
     5
100
AcDbCircle
 10
3.225972959693449
 20
7.639140186915889
 30
0.0
 40
0.718240308410076
100
AcDbArc
 50
336.1397075061514
 51
350.5465867552804
  0
ARC
  5
1D2
330
1F
100
AcDbEntity
  8
0
  6
Continuous
 62
     7
370
     5
100
AcDbCircle
 10
3.928555233404167
 20
7.328380922961479
 30
0.0
 40
0.0500000000000004
100
AcDbArc
 50
156.1397075061518
 51
238.8954314204768
  0
LINE
  5
1D3
330
1F
100
AcDbEntity
  8
0
  6
Continuous
 62
     7
370
     5
100
AcDbLine
 10
3.902725153245011
 20
7.285569628202134
 30
0.0
 11
3.924297553590479
 21
7.272553978166761
 31
0.0
  0
ARC
  5
1D4
330
1F
100
AcDbEntity
  8
0
  6
Continuous
 62
     7
370
     5
100
AcDbCircle
 10
3.950127633749635
 20
7.315365272926106
 30
0.0
 40
0.0499999999999996
100
AcDbArc
 50
238.8954314204768
 51
335.9102280788841
  0
ARC
  5
1D5
330
1F
100
AcDbEntity
  8
0
  6
Continuous
 62
     7
370
     5
100
AcDbCircle
 10
3.225972959693449
 20
7.639140186915889
 30
0.0
 40
0.8432403084100755
100
AcDbArc
 50
335.9102280788832
 51
350.7760661825487
  0
ARC
  5
1D6
330
1F
100
AcDbEntity
  8
0
  6
Continuous
 62
     7
370
     5
100
AcDbCircle
 10
4.008956189224269
 20
7.511988902376567
 30
0.0
 40
0.0499999999999994
100
AcDbArc
 50
350.7760661825495
 51
87.79086284095427
  0
LINE
  5
1D7
330
1F
100
AcDbEntity
  8
0
  6
Continuous
 62
     7
370
     5
100
AcDbLine
 10
4.01088354745242
 20
7.56195174146984
 30
0.0
 11
3.985707519178223
 21
7.562922927778046
 31
0.0
  0
ARC
  5
1D8
330
1F
100
AcDbEntity
  8
0
  6
Continuous
 62
     7
370
     5
100
AcDbCircle
 10
3.98378016095007
 20
7.512960088684772
 30
0.0
 40
0.05
100
AcDbArc
 50
87.79086284095331
 51
170.5465867552788
  0
ARC
  5
1D9
330
1F
100
AcDbEntity
  8
0
  6
Continuous
 62
     7
370
     5
100
AcDbCircle
 10
3.225972959693449
 20
7.639140186915889
 30
0.0
 40
0.9375000000000014
100
AcDbArc
 50
304.6256505795227
 51
323.2655880425064
  0
ARC
  5
1DA
330
1F
100
AcDbEntity
  8
0
  6
Continuous
 62
     7
370
     5
100
AcDbCircle
 10
3.776428524222863
 20
6.841973181841916
 30
0.0
 40
0.031250000000001
100
AcDbArc
 50
124.6256505795219
 51
255.0
  0
LINE
  5
1DB
330
1F
100
AcDbEntity
  8
0
  6
Continuous
 62
     7
370
     5
100
AcDbLine
 10
3.768340429063409
 20
6.811787999770383
 30
0.0
 11
3.836933520354831
 21
6.793408536352491
 31
0.0
  0
ARC
  5
1DC
330
1F
100
AcDbEntity
  8
0
  6
Continuous
 62
     7
370
     5
100
AcDbCircle
 10
3.849874472609958
 20
6.841704827666944
 30
0.0
 40
0.05
100
AcDbArc
 50
254.9999999999995
 51
308.0390953392097
  0
ARC
  5
1DD
330
1F
100
AcDbEntity
  8
0
  6
Continuous
 62
     7
370
     5
100
AcDbCircle
 10
3.225972959693449
 20
7.639140186915889
 30
0.0
 40
1.062500000000001
100
AcDbArc
 50
308.0390953392098
 51
323.4050290372772
  0
ARC
  5
1DE
330
1F
100
AcDbEntity
  8
0
  6
Continuous
 62
     7
370
     5
100
AcDbCircle
 10
4.038878636950901
 20
7.035533850068266
 30
0.0
 40
0.0500000000000004
100
AcDbArc
 50
323.405029037277
 51
58.8954314204765
  0
LINE
  5
1DF
330
1F
100
AcDbEntity
  8
0
  6
Continuous
 62
     7
370
     5
100
AcDbLine
 10
4.064708717110057
 20
7.078345144827612
 30
0.0
 11
4.043201897613516
 21
7.091321226833233
 31
0.0
  0
ARC
  5
1E0
330
1F
100
AcDbEntity
  8
0
  6
Continuous
 62
     7
370
     5
100
AcDbCircle
 10
4.01737181745436
 20
7.048509932073888
 30
0.0
 40
0.0499999999999998
100
AcDbArc
 50
58.89543142047598
 51
143.2655880425052
  0
ARC
  5
1E1
330
1F
100
AcDbEntity
  8
0
  6
Continuous
 62
     7
370
     5
100
AcDbCircle
 10
3.225972959693449
 20
7.639140186915889
 30
0.0
 40
1.0625
100
AcDbArc
 50
130.2482324982544
 51
145.6141661963219
  0
ARC
  5
1E2
330
1F
100
AcDbEntity
  8
0
  6
Continuous
 62
     7
370
     5
100
AcDbCircle
 10
3.580569759147205
 20
7.218710514060661
 30
0.0
 40
0.0500000000000007
100
AcDbArc
 50
130.1447942263112
 51
209.999999999999
  0
LINE
  5
1E3
330
1F
100
AcDbEntity
  8
0
  6
Continuous
 62
     7
370
     5
100
AcDbLine
 10
3.537268488957982
 20
7.193710514060662
 30
0.0
 11
3.549958194249437
 21
7.171731299762786
 31
0.0
  0
ARC
  5
1E4
330
1F
100
AcDbEntity
  8
0
  6
Continuous
 62
     7
370
     5
100
AcDbCircle
 10
3.593259464438659
 20
7.196731299762785
 30
0.0
 40
0.0499999999999999
100
AcDbArc
 50
210.0000000000002
 51
309.6993537065385
  0
ARC
  5
1E5
330
1F
100
AcDbEntity
  8
0
  6
Continuous
 62
     7
370
     5
100
AcDbCircle
 10
3.225972959693449
 20
7.639140186915889
 30
0.0
 40
0.6250000000000006
100
AcDbArc
 50
309.6993537065377
 51
350.6516811020621
  0
ARC
  5
1E6
330
1F
100
AcDbEntity
  8
0
  6
Continuous
 62
     7
370
     5
100
AcDbCircle
 10
3.793336431349693
 20
7.54573948547219
 30
0.0
 40
0.0500000000000005
100
AcDbArc
 50
350.6516811020619
 51
88.77501136169119
  0
LINE
  5
1E7
330
1F
100
AcDbEntity
  8
0
  6
Continuous
 62
     7
370
     5
100
AcDbLine
 10
3.794405354161716
 20
7.595728058206586
 30
0.0
 11
3.769146036724575
 21
7.596268186862952
 31
0.0
  0
ARC
  5
1E8
330
1F
100
AcDbEntity
  8
0
  6
Continuous
 62
     7
370
     5
100
AcDbCircle
 10
3.768077113912551
 20
7.546279614128557
 30
0.0
 40
0.0500000000000005
100
AcDbArc
 50
88.77501136169067
 51
170.2797697834345
  0
ARC
  5
1E9
330
1F
100
AcDbEntity
  8
0
  6
Continuous
 62
     7
370
     5
100
AcDbCircle
 10
3.225972959693449
 20
7.639140186915889
 30
0.0
 40
0.2812500000000002
100
AcDbArc
 50
317.0048605918403
 51
344.5764514866492
  0
ARC
  5
1EA
330
1F
100
AcDbEntity
  8
0
  6
Continuous
 62
     7
370
     5
100
AcDbCircle
 10
3.468253037346887
 20
7.413248782758395
 30
0.0
 40
0.0500000000000003
100
AcDbArc
 50
137.0048605918388
 51
210.0000000000002
  0
LINE
  5
1EB
330
1F
100
AcDbEntity
  8
0
  6
Continuous
 62
     7
370
     5
100
AcDbLine
 10
3.424951767157665
 20
7.388248782758395
 30
0.0
 11
3.437980631116265
 21
7.365682128417195
 31
0.0
  0
ARC
  5
1EC
330
1F
100
AcDbEntity
  8
0
  6
Continuous
 62
     7
370
     5
100
AcDbCircle
 10
3.481281901305488
 20
7.390682128417194
 30
0.0
 40
0.0499999999999996
100
AcDbArc
 50
209.9999999999993
 51
315.7791349826638
  0
ARC
  5
1ED
330
1F
100
AcDbEntity
  8
0
  6
Continuous
 62
     7
370
     5
100
AcDbCircle
 10
3.225972959693449
 20
7.639140186915889
 30
0.0
 40
0.4062500000000003
100
AcDbArc
 50
315.7791349826632
 51
345.5915298754716
  0
ARC
  5
1EE
330
1F
100
AcDbEntity
  8
0
  6
Continuous
 62
     7
370
     5
100
AcDbCircle
 10
3.57101760982377
 20
7.550493405155671
 30
0.0
 40
0.0499999999999998
100
AcDbArc
 50
345.5915298754713
 51
88.77501136169115
  0
LINE
  5
1EF
330
1F
100
AcDbEntity
  8
0
  6
Continuous
 62
     7
370
     5
100
AcDbLine
 10
3.572086532635793
 20
7.600481977890066
 30
0.0
 11
3.546362304460348
 21
7.601032047892354
 31
0.0
  0
ARC
  5
1F0
330
1F
100
AcDbEntity
  8
0
  6
Continuous
 62
     7
370
     5
100
AcDbCircle
 10
3.545293381648325
 20
7.551043475157959
 30
0.0
 40
0.0500000000000005
100
AcDbArc
 50
88.7750113616917
 51
164.5764514866482
  0
ARC
  5
1F1
330
1F
100
AcDbEntity
  8
0
  6
Continuous
 62
     7
370
     5
100
AcDbCircle
 10
3.225972959693449
 20
7.639140186915889
 30
0.0
 40
0.9375000000000015
100
AcDbArc
 50
334.5252747984484
 51
353.1652122614321
  0
ARC
  5
1F2
330
1F
100
AcDbEntity
  8
0
  6
Continuous
 62
     7
370
     5
100
AcDbCircle
 10
4.117463378071088
 20
7.214403699266354
 30
0.0
 40
0.0500000000000001
100
AcDbArc
 50
154.5252747984484
 51
238.8954314204776
  0
LINE
  5
1F3
330
1F
100
AcDbEntity
  8
0
  6
Continuous
 62
     7
370
     5
100
AcDbLine
 10
4.091633297911934
 20
7.171592404507008
 30
0.0
 11
4.113140117408473
 21
7.158616322501385
 31
0.0
  0
ARC
  5
1F4
330
1F
100
AcDbEntity
  8
0
  6
Continuous
 62
     7
370
     5
100
AcDbCircle
 10
4.138970197567629
 20
7.201427617260731
 30
0.0
 40
0.0499999999999999
100
AcDbArc
 50
238.8954314204768
 51
334.3858338036791
  0
ARC
  5
1F5
330
1F
100
AcDbEntity
  8
0
  6
Continuous
 62
     7
370
     5
100
AcDbCircle
 10
3.225972959693449
 20
7.639140186915889
 30
0.0
 40
1.062500000000001
100
AcDbArc
 50
334.3858338036776
 51
349.7517675017451
  0
ARC
  5
1F6
330
1F
100
AcDbEntity
  8
0
  6
Continuous
 62
     7
370
     5
100
AcDbCircle
 10
4.222319723534377
 20
7.4590030830652
 30
0.0
 40
0.0499999999999996
100
AcDbArc
 50
349.751767501745
 51
42.79086284095352
  0
LINE
  5
1F7
330
1F
100
AcDbEntity
  8
0
  6
Continuous
 62
     7
370
     5
100
AcDbLine
 10
4.259011633937464
 20
7.492969297322484
 30
0.0
 11
4.210770918719716
 21
7.54508119849413
 31
0.0
  0
ARC
  5
1F8
330
1F
100
AcDbEntity
  8
0
  6
Continuous
 62
     7
370
     5
100
AcDbCircle
 10
4.187838474717786
 20
7.523852314583326
 30
0.0
 40
0.0312500000000009
100
AcDbArc
 50
42.79086284095508
 51
173.16521226143
  0
ARC
  5
1F9
330
1F
100
AcDbEntity
  8
0
  6
Continuous
 62
     7
370
     5
100
AcDbCircle
 10
3.225972959693449
 20
7.639140186915889
 30
0.0
 40
1.156250000000001
100
AcDbArc
 50
333.5018668136069
 51
346.4356398704832
  0
ARC
  5
1FA
330
1F
100
AcDbEntity
  8
0
  6
Continuous
 62
     7
370
     5
100
AcDbCircle
 10
4.305505069309726
 20
7.100949247929143
 30
0.0
 40
0.0500000000000007
100
AcDbArc
 50
153.5018668136049
 51
238.8954314204768
  0
LINE
  5
1FB
330
1F
100
AcDbEntity
  8
0
  6
Continuous
 62
     7
370
     5
100
AcDbLine
 10
4.27967498915057
 20
7.058137953169798
 30
0.0
 11
4.346493654610162
 21
7.017823090126038
 31
0.0
  0
LINE
  5
1FC
330
1F
100
AcDbEntity
  8
0
  6
Continuous
 62
     7
370
     5
100
AcDbLine
 10
4.485259606794968
 20
7.402922696175219
 30
0.0
 11
4.400504481609559
 21
7.406192195884777
 31
0.0
  0
ARC
  5
1FD
330
1F
100
AcDbEntity
  8
0
  6
Continuous
 62
     7
370
     5
100
AcDbCircle
 10
4.398577123381406
 20
7.356229356791503
 30
0.0
 40
0.05
100
AcDbArc
 50
87.79086284095331
 51
166.4356398704821
  0
LINE
  5
1FE
330
1F
100
AcDbEntity
  8
0
  6
Continuous
 62
     7
370
     5
100
AcDbLine
 10
4.298062254311745
 20
6.937551912452264
 30
0.0
 11
4.231243588852152
 21
6.977866775496025
 31
0.0
  0
ARC
  5
1FF
330
1F
100
AcDbEntity
  8
0
  6
Continuous
 62
     7
370
     5
100
AcDbCircle
 10
4.205413508692998
 20
6.935055480736678
 30
0.0
 40
0.0500000000000007
100
AcDbArc
 50
58.89543142047791
 51
144.2889960273468
  0
ARC
  5
200
330
1F
100
AcDbEntity
  8
0
  6
Continuous
 62
     7
370
     5
100
AcDbCircle
 10
3.225972959693449
 20
7.639140186915889
 30
0.0
 40
1.156250000000001
100
AcDbArc
 50
311.3552229704715
 51
324.2889960273479
  0
ARC
  5
201
330
1F
100
AcDbEntity
  8
0
  6
Continuous
 62
     7
370
     5
100
AcDbCircle
 10
3.225972959693449
 20
7.639140186915889
 30
0.0
 40
0.4062500000000003
100
AcDbArc
 50
134.4084701245278
 51
164.2208650173362
  0
LINE
  5
202
330
1F
100
AcDbEntity
  8
0
  6
Continuous
 62
     7
370
     5
100
AcDbLine
 10
3.979671759570202
 20
6.708695571925644
 30
0.0
 11
4.022080841361561
 21
6.635240887560662
 31
0.0
  0
ARC
  5
203
330
1F
100
AcDbEntity
  8
0
  6
Continuous
 62
     7
370
     5
100
AcDbCircle
 10
3.225972959693449
 20
7.639140186915889
 30
0.0
 40
0.7182403084100758
100
AcDbArc
 50
307.2442760856744
 51
321.6511553348033
  0
ARC
  5
204
330
1F
100
AcDbEntity
  8
0
  6
Continuous
 62
     7
370
     5
100
AcDbCircle
 10
3.690923105791696
 20
7.027572910887138
 30
0.0
 40
0.0500000000000008
100
AcDbArc
 50
127.2442760856736
 51
210.0000000000008
  0
LINE
  5
205
330
1F
100
AcDbEntity
  8
0
  6
Continuous
 62
     7
370
     5
100
AcDbLine
 10
3.647621835602474
 20
7.002572910887137
 30
0.0
 11
3.66021921233841
 21
6.980753614338409
 31
0.0
  0
ARC
  5
206
330
1F
100
AcDbEntity
  8
0
  6
Continuous
 62
     7
370
     5
100
AcDbCircle
 10
3.703520482527632
 20
7.005753614338409
 30
0.0
 40
0.0500000000000007
100
AcDbArc
 50
210.0000000000013
 51
307.0147966584054
  0
ARC
  5
207
330
1F
100
AcDbEntity
  8
0
  6
Continuous
 62
     7
370
     5
100
AcDbCircle
 10
3.225972959693449
 20
7.639140186915889
 30
0.0
 40
0.843240308410076
100
AcDbArc
 50
307.0147966584061
 51
321.8806347620716
  0
ARC
  5
208
330
1F
100
AcDbEntity
  8
0
  6
Continuous
 62
     7
370
     5
100
AcDbCircle
 10
3.850036073132907
 20
7.149471505733641
 30
0.0
 40
0.0500000000000008
100
AcDbArc
 50
321.8806347620716
 51
58.89543142047553
  0
LINE
  5
209
330
1F
100
AcDbEntity
  8
0
  6
Continuous
 62
     7
370
     5
100
AcDbLine
 10
3.875866153292063
 20
7.192282800492987
 30
0.0
 11
3.854293752946595
 21
7.20529845052836
 31
0.0
  0
ARC
  5
20A
330
1F
100
AcDbEntity
  8
0
  6
Continuous
 62
     7
370
     5
100
AcDbCircle
 10
3.828463672787439
 20
7.162487155769015
 30
0.0
 40
0.0499999999999997
100
AcDbArc
 50
58.89543142047598
 51
141.6511553348031
  0
ARC
  5
20B
330
1F
100
AcDbEntity
  8
0
  6
Continuous
 62
     7
370
     5
100
AcDbCircle
 10
4.187838474717787
 20
7.754428059248437
 30
0.0
 40
0.0312499999999997
100
AcDbArc
 50
186.8347877385691
 51
317.2091371590458
  0
LINE
  5
20C
330
1F
100
AcDbEntity
  8
0
  6
Continuous
 62
     7
370
     5
100
AcDbLine
 10
4.279674989150578
 20
8.220142420661964
 30
0.0
 11
4.346493654610172
 21
8.260457283705722
 31
0.0
  0
LINE
  5
20D
330
1F
100
AcDbEntity
  8
0
  6
Continuous
 62
     7
370
     5
100
AcDbLine
 10
2.766670511179072
 20
8.280298472891519
 30
0.0
 11
2.780099597330884
 21
8.258980985993773
 31
0.0
  0
ARC
  5
20E
330
1F
100
AcDbEntity
  8
0
  6
Continuous
 62
     7
370
     5
100
AcDbCircle
 10
2.724365102393178
 20
8.253647912157111
 30
0.0
 40
0.0500000000000007
100
AcDbArc
 50
32.20913715904496
 51
129.2239338174501
  0
ARC
  5
20F
330
1F
100
AcDbEntity
  8
0
  6
Continuous
 62
     7
370
     5
100
AcDbCircle
 10
3.225972959693449
 20
7.639140186915889
 30
0.0
 40
0.8432403084100753
100
AcDbArc
 50
129.2239338174507
 51
144.0897719211163
  0
ARC
  5
210
330
1F
100
AcDbEntity
  8
0
  6
Continuous
 62
     7
370
     5
100
AcDbCircle
 10
2.583498322042094
 20
8.104389073922909
 30
0.0
 40
0.05
100
AcDbArc
 50
144.0897719211163
 51
241.1045685795221
  0
LINE
  5
211
330
1F
100
AcDbEntity
  8
0
  6
Continuous
 62
     7
370
     5
100
AcDbLine
 10
2.581395777041309
 20
8.048439499241522
 30
0.0
 11
2.559337693291174
 21
8.060613920943621
 31
0.0
  0
ARC
  5
212
330
1F
100
AcDbEntity
  8
0
  6
Continuous
 62
     7
370
     5
100
AcDbCircle
 10
2.605556405792229
 20
8.092214652220812
 30
0.0
 40
0.0500000000000003
100
AcDbArc
 50
241.1045685795231
 51
323.8602924938483
  0
ARC
  5
213
330
1F
100
AcDbEntity
  8
0
  6
Continuous
 62
     7
370
     5
100
AcDbCircle
 10
3.225972959693449
 20
7.639140186915889
 30
0.0
 40
0.7182403084100761
100
AcDbArc
 50
129.453413244719
 51
143.8602924938479
  0
ARC
  5
214
330
1F
100
AcDbEntity
  8
0
  6
Continuous
 62
     7
370
     5
100
AcDbCircle
 10
2.73779418854499
 20
8.232330425259364
 30
0.0
 40
0.0499999999999997
100
AcDbArc
 50
309.45341324472
 51
32.20913715904496
  0
LINE
  5
215
330
1F
100
AcDbEntity
  8
0
  6
Continuous
 62
     7
370
     5
100
AcDbLine
 10
2.320942328220345
 20
8.085109138856935
 30
0.0
 11
2.342933354627074
 21
8.072971727821137
 31
0.0
  0
ARC
  5
216
330
1F
100
AcDbEntity
  8
0
  6
Continuous
 62
     7
370
     5
100
AcDbCircle
 10
2.296781699469425
 20
8.041333985877647
 30
0.0
 40
0.0500000000000005
100
AcDbArc
 50
61.10456857952131
 51
156.5949709627223
  0
ARC
  5
217
330
1F
100
AcDbEntity
  8
0
  6
Continuous
 62
     7
370
     5
100
AcDbCircle
 10
3.225972959693449
 20
7.639140186915889
 30
0.0
 40
1.062500000000001
100
AcDbArc
 50
156.5949709627222
 51
171.9609046607897
  0
ARC
  5
218
330
1F
100
AcDbEntity
  8
0
  6
Continuous
 62
     7
370
     5
100
AcDbCircle
 10
2.223422924249642
 20
7.780737066936682
 30
0.0
 40
0.0500000000000008
100
AcDbArc
 50
171.9609046607887
 51
224.9999999999994
  0
LINE
  5
219
330
1F
100
AcDbEntity
  8
0
  6
Continuous
 62
     7
370
     5
100
AcDbLine
 10
2.238281213063846
 20
7.695168100003823
 30
0.0
 11
2.188067585190314
 21
7.745381727877355
 31
0.0
  0
ARC
  5
21A
330
1F
100
AcDbEntity
  8
0
  6
Continuous
 62
     7
370
     5
100
AcDbCircle
 10
2.260378299975926
 20
7.717265186915902
 30
0.0
 40
0.0312500000000001
100
AcDbArc
 50
224.9999999999996
 51
355.3743494204777
  0
ARC
  5
21B
330
1F
100
AcDbEntity
  8
0
  6
Continuous
 62
     7
370
     5
100
AcDbCircle
 10
3.225972959693449
 20
7.639140186915889
 30
0.0
 40
0.9375000000000007
100
AcDbArc
 50
156.7344119574931
 51
175.3743494204767
  0
ARC
  5
21C
330
1F
100
AcDbEntity
  8
0
  6
Continuous
 62
     7
370
     5
100
AcDbCircle
 10
2.318772725876153
 20
8.029196574841847
 30
0.0
 40
0.0500000000000007
100
AcDbArc
 50
336.7344119574934
 51
61.1045685795214
  0
LINE
  5
21D
330
1F
100
AcDbEntity
  8
0
  6
Continuous
 62
     7
370
     5
100
AcDbLine
 10
2.904160756164711
 20
8.109711016504782
 30
0.0
 11
2.917258180021006
 21
8.088105870250144
 31
0.0
  0
ARC
  5
21E
330
1F
100
AcDbEntity
  8
0
  6
Continuous
 62
     7
370
     5
100
AcDbCircle
 10
2.861403843683809
 20
8.083791015827689
 30
0.0
 40
0.0500000000000004
100
AcDbArc
 50
31.22498863830724
 51
129.3483188979373
  0
ARC
  5
21F
330
1F
100
AcDbEntity
  8
0
  6
Continuous
 62
     7
370
     5
100
AcDbCircle
 10
3.225972959693449
 20
7.639140186915889
 30
0.0
 40
0.6250000000000014
100
AcDbArc
 50
129.3483188979372
 51
170.3006462934618
  0
ARC
  5
220
330
1F
100
AcDbEntity
  8
0
  6
Continuous
 62
     7
370
     5
100
AcDbCircle
 10
2.659192372186256
 20
7.736015186915897
 30
0.0
 40
0.0500000000000007
100
AcDbArc
 50
170.3006462934631
 51
270.0000000000003
  0
LINE
  5
221
330
1F
100
AcDbEntity
  8
0
  6
Continuous
 62
     7
370
     5
100
AcDbLine
 10
2.684571782769165
 20
7.686015186915897
 30
0.0
 11
2.659192372186255
 21
7.686015186915897
 31
0.0
  0
ARC
  5
222
330
1F
100
AcDbEntity
  8
0
  6
Continuous
 62
     7
370
     5
100
AcDbCircle
 10
2.684571782769165
 20
7.736015186915897
 30
0.0
 40
0.0500000000000002
100
AcDbArc
 50
270.0000000000008
 51
349.8552057736877
  0
ARC
  5
223
330
1F
100
AcDbEntity
  8
0
  6
Continuous
 62
     7
370
     5
100
AcDbCircle
 10
3.225972959693449
 20
7.639140186915889
 30
0.0
 40
0.5000000000000002
100
AcDbArc
 50
129.7202302165637
 51
169.855205773687
  0
ARC
  5
224
330
1F
100
AcDbEntity
  8
0
  6
Continuous
 62
     7
370
     5
100
AcDbCircle
 10
2.874501267540104
 20
8.062185869573051
 30
0.0
 40
0.05
100
AcDbArc
 50
309.720230216565
 51
31.2249886383075
  0
LINE
  5
225
330
1F
100
AcDbEntity
  8
0
  6
Continuous
 62
     7
370
     5
100
AcDbLine
 10
3.019437182141111
 20
7.919554229165651
 30
0.0
 11
3.032775670824675
 21
7.897551429074112
 31
0.0
  0
ARC
  5
226
330
1F
100
AcDbEntity
  8
0
  6
Continuous
 62
     7
370
     5
100
AcDbCircle
 10
2.97668026966021
 20
7.893634228488558
 30
0.0
 40
0.0500000000000002
100
AcDbArc
 50
31.2249886383075
 51
134.4084701245277
  0
ARC
  5
227
330
1F
100
AcDbEntity
  8
0
  6
Continuous
 62
     7
370
     5
100
AcDbCircle
 10
2.043334886359094
 20
7.876640186915905
 30
0.0
 40
0.0499999999999999
100
AcDbArc
 50
270.0000000000003
 51
348.6447770295299
  0
ARC
  5
228
330
1F
100
AcDbEntity
  8
0
  6
Continuous
 62
     7
370
     5
100
AcDbCircle
 10
2.883147498452602
 20
7.736015186915894
 30
0.0
 40
0.0500000000000007
100
AcDbArc
 50
164.2208650173366
 51
270.0000000000003
  0
LINE
  5
229
330
1F
100
AcDbEntity
  8
0
  6
Continuous
 62
     7
370
     5
100
AcDbLine
 10
2.909205226369804
 20
7.686015186915893
 30
0.0
 11
2.883147498452601
 21
7.686015186915893
 31
0.0
  0
ARC
  5
22A
330
1F
100
AcDbEntity
  8
0
  6
Continuous
 62
     7
370
     5
100
AcDbCircle
 10
2.909205226369805
 20
7.736015186915893
 30
0.0
 40
0.0499999999999999
100
AcDbArc
 50
270.0000000000003
 51
342.9951394081605
  0
ARC
  5
22B
330
1F
100
AcDbEntity
  8
0
  6
Continuous
 62
     7
370
     5
100
AcDbCircle
 10
3.225972959693449
 20
7.639140186915889
 30
0.0
 40
0.2812500000000002
100
AcDbArc
 50
135.4235485133504
 51
162.9951394081591
  0
ARC
  5
22C
330
1F
100
AcDbEntity
  8
0
  6
Continuous
 62
     7
370
     5
100
AcDbCircle
 10
2.990018758343773
 20
7.871631428397019
 30
0.0
 40
0.0500000000000007
100
AcDbArc
 50
315.4235485133503
 51
31.22498863830724
  0
LINE
  5
22D
330
1F
100
AcDbEntity
  8
0
  6
Continuous
 62
     7
370
     5
100
AcDbLine
 10
2.582865918889803
 20
8.460692477106315
 30
0.0
 11
2.652116506752824
 21
8.444970742816837
 31
0.0
  0
ARC
  5
22E
330
1F
100
AcDbEntity
  8
0
  6
Continuous
 62
     7
370
     5
100
AcDbCircle
 10
2.571796269674151
 20
8.411933243455218
 30
0.0
 40
0.0499999999999986
100
AcDbArc
 50
77.20913715904346
 51
130.2482324982541
  0
ARC
  5
22F
330
1F
100
AcDbEntity
  8
0
  6
Continuous
 62
     7
370
     5
100
AcDbCircle
 10
2.39466291195603
 20
8.513189766190892
 30
0.0
 40
0.050000000000001
100
AcDbArc
 50
313.5643601295182
 51
32.20913715904641
  0
ARC
  5
230
330
1F
100
AcDbEntity
  8
0
  6
Continuous
 62
     7
370
     5
100
AcDbCircle
 10
2.390404135879241
 20
8.210962703672393
 30
0.0
 40
0.0500000000000003
100
AcDbArc
 50
145.6141661963214
 51
241.1045685795231
  0
LINE
  5
231
330
1F
100
AcDbEntity
  8
0
  6
Continuous
 62
     7
370
     5
100
AcDbLine
 10
2.38823453353505
 20
8.155050139657303
 30
0.0
 11
2.366243507128321
 21
8.167187550693103
 31
0.0
  0
ARC
  5
232
330
1F
100
AcDbEntity
  8
0
  6
Continuous
 62
     7
370
     5
100
AcDbCircle
 10
2.41239516228597
 20
8.198825292636593
 30
0.0
 40
0.0500000000000003
100
AcDbArc
 50
241.1045685795231
 51
325.4747252015516
  0
ARC
  5
233
330
1F
100
AcDbEntity
  8
0
  6
Continuous
 62
     7
370
     5
100
AcDbCircle
 10
3.225972959693449
 20
7.639140186915889
 30
0.0
 40
0.9375000000000003
100
AcDbArc
 50
126.8347877385673
 51
145.4747252015511
  0
ARC
  5
234
330
1F
100
AcDbEntity
  8
0
  6
Continuous
 62
     7
370
     5
100
AcDbCircle
 10
2.645197975993043
 20
8.414496221784899
 30
0.0
 40
0.0312500000000006
100
AcDbArc
 50
306.834787738569
 51
77.20913715904586
  0
LINE
  5
235
330
1F
100
AcDbEntity
  8
0
  6
Continuous
 62
     7
370
     5
100
AcDbLine
 10
2.391759288343078
 20
8.611605668582019
 30
0.0
 11
2.436968320741924
 21
8.539840326925302
 31
0.0
  0
LINE
  5
236
330
1F
100
AcDbEntity
  8
0
  6
Continuous
 62
     7
370
     5
100
AcDbLine
 10
2.195959250885284
 20
8.261171795571954
 30
0.0
 11
2.127636222609502
 21
8.298881025785055
 31
0.0
  0
ARC
  5
237
330
1F
100
AcDbEntity
  8
0
  6
Continuous
 62
     7
370
     5
100
AcDbCircle
 10
2.220119879636205
 20
8.304946948551243
 30
0.0
 40
0.0500000000000008
100
AcDbArc
 50
241.1045685795231
 51
326.4981331863927
  0
ARC
  5
238
330
1F
100
AcDbEntity
  8
0
  6
Continuous
 62
     7
370
     5
100
AcDbCircle
 10
3.225972959693449
 20
7.639140186915889
 30
0.0
 40
1.15625
100
AcDbArc
 50
133.5643601295162
 51
146.4981331863925
  0
LINE
  5
239
330
1F
100
AcDbEntity
  8
0
  6
Continuous
 62
     7
370
     5
100
AcDbLine
 10
2.082335043701526
 20
8.216802613948887
 30
0.0
 11
2.150658071977309
 21
8.179093383735786
 31
0.0
  0
LINE
  5
23A
330
1F
100
AcDbEntity
  8
0
  6
Continuous
 62
     7
370
     5
100
AcDbLine
 10
2.043334886359094
 20
7.826640186915906
 30
0.0
 11
1.958516722776373
 21
7.826640186915907
 31
0.0
  0
ARC
  5
23B
330
1F
100
AcDbEntity
  8
0
  6
Continuous
 62
     7
370
     5
100
AcDbCircle
 10
2.126497443226388
 20
8.135318230756496
 30
0.0
 40
0.0500000000000007
100
AcDbArc
 50
335.7110039726507
 51
61.1045685795214
  0
ARC
  5
23C
330
1F
100
AcDbEntity
  8
0
  6
Continuous
 62
     7
370
     5
100
AcDbCircle
 10
3.225972959693449
 20
7.639140186915889
 30
0.0
 40
1.15625
100
AcDbArc
 50
155.7110039726516
 51
168.6447770295279
  0
LWPOLYLINE
  5
23D
330
1F
100
AcDbEntity
  8
0
  6
Continuous
 62
     7
370
     5
100
AcDbPolyline
 90
        3
 70
   128
 43
0.0
 10
3.755535459693453
 20
8.556369342699079
 10
3.760143166495697
 20
8.554016614774642
 10
3.763292305616065
 20
8.552734073484556
  0
ARC
  5
23E
330
1F
100
AcDbEntity
  8
0
  6
Continuous
 62
     7
370
     5
100
AcDbCircle
 10
3.780660459693453
 20
8.599887119239246
 30
0.0
 40
0.0502499999999997
100
AcDbArc
 50
313.9053183798069
 51
339.7794423383479
  0
ARC
  5
23F
330
1F
100
AcDbEntity
  8
0
  6
Continuous
 62
     7
370
     5
100
AcDbCircle
 10
3.780660459693453
 20
8.599887119239246
 30
0.0
 40
0.050250000000002
100
AcDbArc
 50
43.9053183798062
 51
69.77944233834707
  0
ARC
  5
240
330
1F
100
AcDbEntity
  8
0
  6
Continuous
 62
     7
370
     5
100
AcDbCircle
 10
3.780660459693453
 20
8.599887119239246
 30
0.0
 40
0.0502500000000007
100
AcDbArc
 50
133.9053183798044
 51
159.7794423383452
  0
ARC
  5
241
330
1F
100
AcDbEntity
  8
0
  6
Continuous
 62
     7
370
     5
100
AcDbCircle
 10
3.780660459693453
 20
8.599887119239246
 30
0.0
 40
0.0502499999999994
100
AcDbArc
 50
223.9053183798059
 51
240.0000000000001
  0
CIRCLE
  5
242
330
1F
100
AcDbEntity
  8
0
  6
Continuous
 62
     7
370
     5
100
AcDbCircle
 10
3.225972959693449
 20
7.639140186915888
 30
0.0
 40
1.5
  0
CIRCLE
  5
243
330
1F
100
AcDbEntity
  8
0
  6
Continuous
 62
     7
370
     5
100
AcDbCircle
 10
3.225972959693449
 20
7.639140186915888
 30
0.0
 40
1.296874999999999
  0
LWPOLYLINE
  5
244
330
1F
100
AcDbEntity
  8
0
  6
Continuous
 62
     7
370
     5
100
AcDbPolyline
 90
        3
 70
   128
 43
0.0
 10
2.196083803796821
 20
8.261103282438066
 10
2.202061242147501
 20
8.270895329591519
 10
2.208264756633603
 20
8.280840879645529
  0
LWPOLYLINE
  5
245
330
1F
100
AcDbEntity
  8
0
  6
Continuous
 62
     7
370
     5
100
AcDbPolyline
 90
        3
 70
   128
 43
0.0
 10
3.202281696703148
 20
6.436248467066206
 10
3.190812815937869
 20
6.436529056950724
 10
3.179097959693437
 20
6.436928683061429
  0
LWPOLYLINE
  5
246
330
1F
100
AcDbEntity
  8
0
  6
Continuous
 62
     7
370
     5
100
AcDbPolyline
 90
        3
 70
   128
 43
0.0
 10
4.279553378580374
 20
8.220068811243397
 10
4.285044820994976
 20
8.209996174205429
 10
4.290556162753308
 20
8.199650998040715
  0
LWPOLYLINE
  5
247
330
1F
100
AcDbEntity
  8
0
  6
Continuous
 62
     7
370
     5
100
AcDbPolyline
 90
        3
 70
   128
 43
0.0
 10
3.179097959693453
 20
8.841351690770347
 10
3.190812815937885
 20
8.841751316881051
 10
3.202281696703169
 20
8.842031906765569
  0
LWPOLYLINE
  5
248
330
1F
100
AcDbEntity
  8
0
  6
Continuous
 62
     7
370
     5
100
AcDbPolyline
 90
        3
 70
   128
 43
0.0
 10
4.290556162753299
 20
7.078629375791046
 10
4.285044820994968
 20
7.068284199626332
 10
4.279553378580363
 20
7.058211562588359
  0
LWPOLYLINE
  5
249
330
1F
100
AcDbEntity
  8
0
  6
Continuous
 62
     7
370
     5
100
AcDbPolyline
 90
        3
 70
   128
 43
0.0
 10
2.208264756633586
 20
6.997439494186275
 10
2.202061242147484
 20
7.007385044240285
 10
2.1960838037968
 20
7.017177091393744
  0
LINE
  5
24A
330
1F
100
AcDbEntity
  8
0
  6
Continuous
 62
     7
370
     5
100
AcDbLine
 10
3.179097959693437
 20
6.436928683061429
 30
0.0
 11
3.179097959693437
 21
6.477350826694721
 31
0.0
  0
LINE
  5
24B
330
1F
100
AcDbEntity
  8
0
  6
Continuous
 62
     7
370
     5
100
AcDbLine
 10
4.290556162753308
 20
8.199650998040715
 30
0.0
 11
4.255549559491453
 21
8.17943992622407
 31
0.0
  0
LINE
  5
24C
330
1F
100
AcDbEntity
  8
0
  6
Continuous
 62
     7
370
     5
100
AcDbLine
 10
3.179097959693453
 20
8.841351690770347
 30
0.0
 11
3.179097959693453
 21
8.800929547137055
 31
0.0
  0
LINE
  5
24D
330
1F
100
AcDbEntity
  8
0
  6
Continuous
 62
     7
370
     5
100
AcDbLine
 10
2.208264756633586
 20
6.997439494186275
 30
0.0
 11
2.243271359895441
 21
7.017650566002921
 31
0.0
  0
LINE
  5
24E
330
1F
100
AcDbEntity
  8
0
  6
Continuous
 62
     7
370
     5
100
AcDbLine
 10
4.290556162753299
 20
7.078629375791046
 30
0.0
 11
4.255549559491446
 21
7.098840447607692
 31
0.0
  0
ARC
  5
24F
330
1F
100
AcDbEntity
  8
0
  6
Continuous
 62
     7
370
     5
100
AcDbCircle
 10
2.686910459693445
 20
6.705456548460792
 30
0.0
 40
0.1562500000000002
100
AcDbArc
 50
345.3585433343842
 51
26.12569759723884
  0
ARC
  5
250
330
1F
100
AcDbEntity
  8
0
  6
Continuous
 62
     7
370
     5
100
AcDbCircle
 10
2.686910459693445
 20
6.705456548460792
 30
0.0
 40
0.1562500000000007
100
AcDbArc
 50
93.87430240278295
 51
134.6414566656424
  0
ARC
  5
251
330
1F
100
AcDbEntity
  8
0
  6
Continuous
 62
     7
370
     5
100
AcDbCircle
 10
4.304097959693449
 20
7.639140186915873
 30
0.0
 40
0.1562500000000008
100
AcDbArc
 50
105.3585433343924
 51
146.125697597196
  0
ARC
  5
252
330
1F
100
AcDbEntity
  8
0
  6
Continuous
 62
     7
370
     5
100
AcDbCircle
 10
4.304097959693449
 20
7.639140186915873
 30
0.0
 40
0.15625
100
AcDbArc
 50
213.8743024027982
 51
254.6414566656144
  0
ARC
  5
253
330
1F
100
AcDbEntity
  8
0
  6
Continuous
 62
     7
370
     5
100
AcDbCircle
 10
2.686910459693458
 20
8.57282382537099
 30
0.0
 40
0.15625
100
AcDbArc
 50
225.3585433343859
 51
266.1256975971973
  0
ARC
  5
254
330
1F
100
AcDbEntity
  8
0
  6
Continuous
 62
     7
370
     5
100
AcDbCircle
 10
2.686910459693458
 20
8.57282382537099
 30
0.0
 40
0.1562499999999999
100
AcDbArc
 50
333.8743024028064
 51
14.64145666561291
  0
LINE
  5
255
330
1F
100
AcDbEntity
  8
0
  6
Continuous
 62
     7
370
     5
100
AcDbLine
 10
2.208264756633603
 20
8.280840879645529
 30
0.0
 11
2.243271359895456
 21
8.260629807828882
 31
0.0
  0
CIRCLE
  5
256
330
1F
100
AcDbEntity
  8
0
  6
Continuous
 62
     7
370
     5
100
AcDbCircle
 10
3.225972959693449
 20
7.639140186915888
 30
0.0
 40
1.5625
  0
SPLINE
  5
25C
330
1F
100
AcDbEntity
  8
0
  6
Continuous
 62
     7
370
     5
100
AcDbSpline
210
0.0
220
0.0
230
1.0
 70
    24
 71
     1
 72
     4
 73
     2
 74
     0
 42
0.0000000001
 43
0.0000000001
 40
0.0
 40
0.0
 40
1.0
 40
1.0
 10
2.843160456032758
 20
3.843233011958089
 30
0.0
 10
2.843160456032758
 20
3.96823301044744
 30
0.0
  0
SPLINE
  5
25D
330
1F
100
AcDbEntity
  8
0
  6
Continuous
 62
     7
370
     5
100
AcDbSpline
210
0.0
220
0.0
230
1.0
 70
    24
 71
     1
 72
     4
 73
     2
 74
     0
 42
0.0000000001
 43
0.0000000001
 40
0.0
 40
0.0
 40
1.0
 40
1.0
 10
3.655660459963379
 20
3.96823301044744
 30
0.0
 10
3.655660459963379
 20
3.843233011958089
 30
0.0
  0
SPLINE
  5
25E
330
1F
100
AcDbEntity
  8
0
  6
Continuous
 62
     7
370
     5
100
AcDbSpline
210
0.0
220
0.0
230
1.0
 70
    24
 71
     1
 72
     4
 73
     2
 74
     0
 42
0.0000000001
 43
0.0000000001
 40
0.0
 40
0.0
 40
1.0
 40
1.0
 10
2.811910477035182
 20
3.724391338160579
 30
0.0
 10
2.811910477035182
 20
3.833233009145642
 30
0.0
  0
SPLINE
  5
25F
330
1F
100
AcDbEntity
  8
0
  6
Continuous
 62
     7
370
     5
100
AcDbSpline
210
0.0
220
0.0
230
1.0
 70
    24
 71
     1
 72
     4
 73
     2
 74
     0
 42
0.0000000001
 43
0.0000000001
 40
0.0
 40
0.0
 40
1.0
 40
1.0
 10
2.639410469769986
 20
3.843233011958089
 30
0.0
 10
2.639410469769986
 20
3.833233009145642
 30
0.0
  0
SPLINE
  5
260
330
1F
100
AcDbEntity
  8
0
  6
Continuous
 62
     7
370
     5
100
AcDbSpline
210
0.0
220
0.0
230
1.0
 70
    24
 71
     1
 72
     4
 73
     2
 74
     0
 42
0.0000000001
 43
0.0000000001
 40
0.0
 40
0.0
 40
1.0
 40
1.0
 10
2.734410468988555
 20
3.833233009145642
 30
0.0
 10
2.734410468988555
 20
3.843233011958089
 30
0.0
  0
LINE
  5
261
330
1F
100
AcDbEntity
  8
0
  6
Continuous
 62
     7
370
     5
100
AcDbLine
 10
4.256597927882469
 20
3.655732991307661
 30
0.0
 11
4.256597927882469
 21
3.971135024423127
 31
0.0
  0
LINE
  5
262
330
1F
100
AcDbEntity
  8
0
  6
Continuous
 62
     7
370
     5
100
AcDbLine
 10
4.256597927882469
 20
3.971135024423127
 30
0.0
 11
4.207847957712951
 21
4.029233007436936
 31
0.0
  0
LINE
  5
263
330
1F
100
AcDbEntity
  8
0
  6
Continuous
 62
     7
370
     5
100
AcDbLine
 10
4.207847957712951
 20
4.029233007436936
 30
0.0
 11
4.207847957712951
 21
4.030733007400475
 31
0.0
  0
LINE
  5
264
330
1F
100
AcDbEntity
  8
0
  6
Continuous
 62
     7
370
     5
100
AcDbLine
 10
4.207847957712951
 20
4.030733007400475
 30
0.0
 11
4.279183086976784
 21
4.030733007400475
 31
0.0
  0
LINE
  5
265
330
1F
100
AcDbEntity
  8
0
  6
Continuous
 62
     7
370
     5
100
AcDbLine
 10
4.279183086976784
 20
4.030733007400475
 30
0.0
 11
4.279183086976784
 21
3.990733007608886
 31
0.0
  0
LINE
  5
266
330
1F
100
AcDbEntity
  8
0
  6
Continuous
 62
     7
370
     5
100
AcDbLine
 10
4.279183086976784
 20
3.990733007608886
 30
0.0
 11
4.329012804672967
 21
3.990733007608886
 31
0.0
  0
LINE
  5
267
330
1F
100
AcDbEntity
  8
0
  6
Continuous
 62
     7
370
     5
100
AcDbLine
 10
4.329012804672967
 20
3.990733007608886
 30
0.0
 11
4.329012804672967
 21
4.030733007400475
 31
0.0
  0
LINE
  5
268
330
1F
100
AcDbEntity
  8
0
  6
Continuous
 62
     7
370
     5
100
AcDbLine
 10
4.329012804672967
 20
4.030733007400475
 30
0.0
 11
4.400347933936799
 21
4.030733007400475
 31
0.0
  0
LINE
  5
269
330
1F
100
AcDbEntity
  8
0
  6
Continuous
 62
     7
370
     5
100
AcDbLine
 10
4.400347933936799
 20
4.030733007400475
 30
0.0
 11
4.400347933936799
 21
4.029233007436936
 31
0.0
  0
LINE
  5
26A
330
1F
100
AcDbEntity
  8
0
  6
Continuous
 62
     7
370
     5
100
AcDbLine
 10
4.400347933936799
 20
4.029233007436936
 30
0.0
 11
4.351597963767281
 21
3.971135024423127
 31
0.0
  0
LINE
  5
26B
330
1F
100
AcDbEntity
  8
0
  6
Continuous
 62
     7
370
     5
100
AcDbLine
 10
4.351597963767281
 20
3.971135024423127
 30
0.0
 11
4.351597963767281
 21
3.655732991307661
 31
0.0
  0
LINE
  5
26C
330
1F
100
AcDbEntity
  8
0
  6
Continuous
 62
     7
370
     5
100
AcDbLine
 10
4.351597963767281
 20
3.655732991307661
 30
0.0
 11
4.256597927882469
 21
3.655732991307661
 31
0.0
  0
LINE
  5
26D
330
1F
100
AcDbEntity
  8
0
  6
Continuous
 62
     7
370
     5
100
AcDbLine
 10
4.288980307131795
 20
3.990733007608886
 30
0.0
 11
4.288980307131795
 21
4.030733007400475
 31
0.0
  0
LINE
  5
26E
330
1F
100
AcDbEntity
  8
0
  6
Continuous
 62
     7
370
     5
100
AcDbLine
 10
4.309056028548681
 20
3.990733007608886
 30
0.0
 11
4.309056028548681
 21
4.030733007400475
 31
0.0
  0
LINE
  5
26F
330
1F
100
AcDbEntity
  8
0
  6
Continuous
 62
     7
370
     5
100
AcDbLine
 10
2.212847937456759
 20
4.154233005926287
 30
0.0
 11
2.164097967287241
 21
4.096135020620837
 31
0.0
  0
LINE
  5
270
330
1F
100
AcDbEntity
  8
0
  6
Continuous
 62
     7
370
     5
100
AcDbLine
 10
2.069098004734915
 20
4.096135020620837
 30
0.0
 11
2.020347887900425
 21
4.154233005926287
 31
0.0
  0
LINE
  5
271
330
1F
100
AcDbEntity
  8
0
  6
Continuous
 62
     7
370
     5
100
AcDbLine
 10
2.212847937456759
 20
4.155733003598186
 30
0.0
 11
2.212847937456759
 21
4.154233005926287
 31
0.0
  0
LINE
  5
272
330
1F
100
AcDbEntity
  8
0
  6
Continuous
 62
     7
370
     5
100
AcDbLine
 10
2.020347887900425
 20
4.154233005926287
 30
0.0
 11
2.020347887900425
 21
4.155733003598186
 31
0.0
  0
LINE
  5
273
330
1F
100
AcDbEntity
  8
0
  6
Continuous
 62
     7
370
     5
100
AcDbLine
 10
2.069098004734915
 20
3.905733006619484
 30
0.0
 11
2.069098004734915
 21
4.096135020620837
 31
0.0
  0
LINE
  5
274
330
1F
100
AcDbEntity
  8
0
  6
Continuous
 62
     7
370
     5
100
AcDbLine
 10
2.05400295244758
 20
4.155733003598186
 30
0.0
 11
2.05400295244758
 21
4.115733006098237
 31
0.0
  0
LINE
  5
275
330
1F
100
AcDbEntity
  8
0
  6
Continuous
 62
     7
370
     5
100
AcDbLine
 10
2.05400295244758
 20
4.115733006098237
 30
0.0
 11
2.179193019574575
 21
4.115733006098237
 31
0.0
  0
LINE
  5
276
330
1F
100
AcDbEntity
  8
0
  6
Continuous
 62
     7
370
     5
100
AcDbLine
 10
2.179193019574575
 20
4.115733006098237
 30
0.0
 11
2.179193019574575
 21
4.155733003598186
 31
0.0
  0
LINE
  5
277
330
1F
100
AcDbEntity
  8
0
  6
Continuous
 62
     7
370
     5
100
AcDbLine
 10
2.164097967287241
 20
4.096135020620837
 30
0.0
 11
2.164097967287241
 21
3.905733006619484
 31
0.0
  0
LINE
  5
278
330
1F
100
AcDbEntity
  8
0
  6
Continuous
 62
     7
370
     5
100
AcDbLine
 10
2.164097967287241
 20
3.905733006619484
 30
0.0
 11
2.069098004734915
 21
3.905733006619484
 31
0.0
  0
LINE
  5
279
330
1F
100
AcDbEntity
  8
0
  6
Continuous
 62
     7
370
     5
100
AcDbLine
 10
2.179193019574575
 20
4.155733003598186
 30
0.0
 11
2.212847937456759
 21
4.155733003598186
 31
0.0
  0
LINE
  5
27A
330
1F
100
AcDbEntity
  8
0
  6
Continuous
 62
     7
370
     5
100
AcDbLine
 10
2.020347887900425
 20
4.155733003598186
 30
0.0
 11
2.05400295244758
 21
4.155733003598186
 31
0.0
  0
LINE
  5
27B
330
1F
100
AcDbEntity
  8
0
  6
Continuous
 62
     7
370
     5
100
AcDbLine
 10
2.05481254309512
 20
4.128256210179115
 30
0.0
 11
2.05481254309512
 21
4.155733003598186
 31
0.0
  0
LINE
  5
27C
330
1F
100
AcDbEntity
  8
0
  6
Continuous
 62
     7
370
     5
100
AcDbLine
 10
2.05481254309512
 20
4.155733003598186
 30
0.0
 11
2.05400295244758
 21
4.155733003598186
 31
0.0
  0
LINE
  5
27D
330
1F
100
AcDbEntity
  8
0
  6
Continuous
 62
     7
370
     5
100
AcDbLine
 10
2.128450532422784
 20
4.115733006098237
 30
0.0
 11
2.128450532422784
 21
4.155733003598186
 31
0.0
  0
LINE
  5
27E
330
1F
100
AcDbEntity
  8
0
  6
Continuous
 62
     7
370
     5
100
AcDbLine
 10
2.179193019574575
 20
4.155733003598186
 30
0.0
 11
2.128450532422784
 21
4.155733003598186
 31
0.0
  0
LINE
  5
27F
330
1F
100
AcDbEntity
  8
0
  6
Continuous
 62
     7
370
     5
100
AcDbLine
 10
2.105984758615987
 20
4.115733006098237
 30
0.0
 11
2.105984758615987
 21
4.155733003598186
 31
0.0
  0
LINE
  5
280
330
1F
100
AcDbEntity
  8
0
  6
Continuous
 62
     7
370
     5
100
AcDbLine
 10
2.105984758615987
 20
4.155733003598186
 30
0.0
 11
2.05481254309512
 21
4.155733003598186
 31
0.0
  0
LINE
  5
281
330
1F
100
AcDbEntity
  8
0
  6
Continuous
 62
     7
370
     5
100
AcDbLine
 10
2.108807692671878
 20
4.128256210179115
 30
0.0
 11
2.108807692671878
 21
4.155733003598186
 31
0.0
  0
LINE
  5
282
330
1F
100
AcDbEntity
  8
0
  6
Continuous
 62
     7
370
     5
100
AcDbLine
 10
2.108807692671878
 20
4.155733003598186
 30
0.0
 11
2.105984758615987
 21
4.155733003598186
 31
0.0
  0
LINE
  5
283
330
1F
100
AcDbEntity
  8
0
  6
Continuous
 62
     7
370
     5
100
AcDbLine
 10
2.128450532422784
 20
4.155733003598186
 30
0.0
 11
2.108807692671878
 21
4.155733003598186
 31
0.0
  0
LINE
  5
284
330
1F
100
AcDbEntity
  8
0
  6
Continuous
 62
     7
370
     5
100
AcDbLine
 10
4.413472982315121
 20
4.030733007400475
 30
0.0
 11
4.507222992640335
 21
4.124483006267488
 31
0.0
  0
LINE
  5
285
330
1F
100
AcDbEntity
  8
0
  6
Continuous
 62
     7
370
     5
100
AcDbLine
 10
4.007222962016689
 20
3.96823301044744
 30
0.0
 11
4.069722993344327
 21
4.030733007400475
 31
0.0
  0
LINE
  5
286
330
1F
100
AcDbEntity
  8
0
  6
Continuous
 62
     7
370
     5
100
AcDbLine
 10
3.416748444895364
 20
3.96823301044744
 30
0.0
 11
4.007222962016689
 21
3.96823301044744
 31
0.0
  0
LINE
  5
287
330
1F
100
AcDbEntity
  8
0
  6
Continuous
 62
     7
370
     5
100
AcDbLine
 10
3.413472957734072
 20
4.030733007400475
 30
0.0
 11
3.416748444895364
 21
3.96823301044744
 31
0.0
  0
LINE
  5
288
330
1F
100
AcDbEntity
  8
0
  6
Continuous
 62
     7
370
     5
100
AcDbLine
 10
3.413472957734072
 20
4.030733007400475
 30
0.0
 11
3.038472953099458
 21
4.030733007400475
 31
0.0
  0
LINE
  5
289
330
1F
100
AcDbEntity
  8
0
  6
Continuous
 62
     7
370
     5
100
AcDbLine
 10
3.035197465938165
 20
3.96823301044744
 30
0.0
 11
3.038472953099458
 21
4.030733007400475
 31
0.0
  0
LINE
  5
28A
330
1F
100
AcDbEntity
  8
0
  6
Continuous
 62
     7
370
     5
100
AcDbLine
 10
2.979248463932477
 20
3.96823301044744
 30
0.0
 11
3.035197465938165
 21
3.96823301044744
 31
0.0
  0
LINE
  5
28B
330
1F
100
AcDbEntity
  8
0
  6
Continuous
 62
     7
370
     5
100
AcDbLine
 10
2.979248463932477
 20
3.96823301044744
 30
0.0
 11
2.975972958438063
 21
4.030733007400475
 31
0.0
  0
LINE
  5
28C
330
1F
100
AcDbEntity
  8
0
  6
Continuous
 62
     7
370
     5
100
AcDbLine
 10
2.166847935519373
 20
4.030733007400475
 30
0.0
 11
2.166847935519373
 21
4.117134426575574
 31
0.0
  0
LINE
  5
28D
330
1F
100
AcDbEntity
  8
0
  6
Continuous
 62
     7
370
     5
100
AcDbLine
 10
2.166847935519373
 20
4.117134426575574
 30
0.0
 11
2.212847937456759
 21
4.155733003598186
 31
0.0
  0
LINE
  5
28E
330
1F
100
AcDbEntity
  8
0
  6
Continuous
 62
     7
370
     5
100
AcDbLine
 10
4.507222992640335
 20
4.124483006267488
 30
0.0
 11
4.507222992640335
 21
4.155733003598186
 31
0.0
  0
LINE
  5
28F
330
1F
100
AcDbEntity
  8
0
  6
Continuous
 62
     7
370
     5
100
AcDbLine
 10
2.975972958438063
 20
4.030733007400475
 30
0.0
 11
2.166847935519373
 21
4.030733007400475
 31
0.0
  0
LINE
  5
290
330
1F
100
AcDbEntity
  8
0
  6
Continuous
 62
     7
370
     5
100
AcDbLine
 10
4.413472982315121
 20
4.030733007400475
 30
0.0
 11
4.069722993344327
 21
4.030733007400475
 31
0.0
  0
LINE
  5
291
330
1F
100
AcDbEntity
  8
0
  6
Continuous
 62
     7
370
     5
100
AcDbLine
 10
4.507222992640335
 20
4.155733003598186
 30
0.0
 11
2.212847937456759
 21
4.155733003598186
 31
0.0
  0
LINE
  5
292
330
1F
100
AcDbEntity
  8
0
  6
Continuous
 62
     7
370
     5
100
AcDbLine
 10
3.035197465938165
 20
3.96823301044744
 30
0.0
 11
3.416748444895364
 21
3.96823301044744
 31
0.0
  0
LINE
  5
293
330
1F
100
AcDbEntity
  8
0
  6
Continuous
 62
     7
370
     5
100
AcDbLine
 10
2.166847935519373
 20
4.117134426575574
 30
0.0
 11
2.166117763954377
 21
4.117134426575574
 31
0.0
  0
LINE
  5
294
330
1F
100
AcDbEntity
  8
0
  6
Continuous
 62
     7
370
     5
100
AcDbLine
 10
2.128450532422784
 20
4.117134426575574
 30
0.0
 11
2.108062707944672
 21
4.117134426575574
 31
0.0
  0
LINE
  5
295
330
1F
100
AcDbEntity
  8
0
  6
Continuous
 62
     7
370
     5
100
AcDbLine
 10
2.068317453751907
 20
4.117134426575574
 30
0.0
 11
2.06634788983781
 21
4.117134426575574
 31
0.0
  0
LINE
  5
296
330
1F
100
AcDbEntity
  8
0
  6
Continuous
 62
     7
370
     5
100
AcDbLine
 10
2.020347887900425
 20
4.155733003598186
 30
0.0
 11
2.06634788983781
 21
4.117134426575574
 31
0.0
  0
LINE
  5
297
330
1F
100
AcDbEntity
  8
0
  6
Continuous
 62
     7
370
     5
100
AcDbLine
 10
1.944723028191924
 20
4.124483006267488
 30
0.0
 11
2.038472891852166
 21
4.030733007400475
 31
0.0
  0
LINE
  5
298
330
1F
100
AcDbEntity
  8
0
  6
Continuous
 62
     7
370
     5
100
AcDbLine
 10
1.944723028191924
 20
4.155733003598186
 30
0.0
 11
1.944723028191924
 21
4.124483006267488
 31
0.0
  0
LINE
  5
299
330
1F
100
AcDbEntity
  8
0
  6
Continuous
 62
     7
370
     5
100
AcDbLine
 10
2.06634788983781
 20
4.117134426575574
 30
0.0
 11
2.06634788983781
 21
4.030733007400475
 31
0.0
  0
LINE
  5
29A
330
1F
100
AcDbEntity
  8
0
  6
Continuous
 62
     7
370
     5
100
AcDbLine
 10
2.06634788983781
 20
4.030733007400475
 30
0.0
 11
2.038472891852166
 21
4.030733007400475
 31
0.0
  0
LINE
  5
29B
330
1F
100
AcDbEntity
  8
0
  6
Continuous
 62
     7
370
     5
100
AcDbLine
 10
2.020347887900425
 20
4.155733003598186
 30
0.0
 11
1.944723028191924
 21
4.155733003598186
 31
0.0
  0
LINE
  5
29C
330
1F
100
AcDbEntity
  8
0
  6
Continuous
 62
     7
370
     5
100
AcDbLine
 10
2.811121309485046
 20
3.96823301044744
 30
0.0
 11
2.777034683256661
 21
4.030733007400475
 31
0.0
  0
LINE
  5
29D
330
1F
100
AcDbEntity
  8
0
  6
Continuous
 62
     7
370
     5
100
AcDbLine
 10
2.811121309485046
 20
3.96823301044744
 30
0.0
 11
2.979248463932477
 21
3.96823301044744
 31
0.0
  0
LINE
  5
29E
330
1F
100
AcDbEntity
  8
0
  6
Continuous
 62
     7
370
     5
100
AcDbLine
 10
4.725972992288339
 20
4.155733003598186
 30
0.0
 11
4.725972992288339
 21
4.124483006267488
 31
0.0
  0
LINE
  5
29F
330
1F
100
AcDbEntity
  8
0
  6
Continuous
 62
     7
370
     5
100
AcDbLine
 10
1.725972955211434
 20
4.124483006267488
 30
0.0
 11
1.725972955211434
 21
4.155733003598186
 31
0.0
  0
LINE
  5
2A0
330
1F
100
AcDbEntity
  8
0
  6
Continuous
 62
     7
370
     5
100
AcDbLine
 10
4.725972992288339
 20
4.124483006267488
 30
0.0
 11
4.482400899387275
 21
3.953932020653694
 31
0.0
  0
LINE
  5
2A1
330
1F
100
AcDbEntity
  8
0
  6
Continuous
 62
     7
370
     5
100
AcDbLine
 10
1.969545048112498
 20
3.953932020653694
 30
0.0
 11
1.725972955211434
 21
4.124483006267488
 31
0.0
  0
SPLINE
  5
2A2
330
1F
100
AcDbEntity
  8
0
  6
Continuous
 62
     7
370
     5
100
AcDbSpline
210
0.0
220
0.0
230
1.0
 70
    24
 71
     1
 72
     4
 73
     2
 74
     0
 42
0.0000000001
 43
0.0000000001
 40
0.0
 40
0.0
 40
1.0
 40
1.0
 10
2.241597938667625
 20
3.93819275164174
 30
0.0
 10
2.241788529799233
 20
3.93797288251502
 30
0.0
  0
LINE
  5
2A3
330
1F
100
AcDbEntity
  8
0
  6
Continuous
 62
     7
370
     5
100
AcDbLine
 10
4.429097935147666
 20
4.030733007400475
 30
0.0
 11
4.52284794547288
 21
4.124483006267488
 31
0.0
  0
LINE
  5
2A4
330
1F
100
AcDbEntity
  8
0
  6
Continuous
 62
     7
370
     5
100
AcDbLine
 10
4.147847977504509
 20
3.905733006619484
 30
0.0
 11
3.864904956086438
 21
3.905733006619484
 31
0.0
  0
SPLINE
  5
2A5
330
1F
100
AcDbEntity
  8
0
  6
Continuous
 62
     7
370
     5
100
AcDbSpline
210
0.0
220
0.0
230
1.0
 70
     8
 71
     3
 72
    11
 73
     7
 74
     0
 42
0.0000000001
 43
0.0000000001
 40
0.0
 40
0.0
 40
0.0
 40
0.0
 40
0.2485104191534019
 40
0.4970222099529834
 40
0.7485128316314143
 40
1.0
 40
1.0
 40
1.0
 40
1.0
 10
3.888913645402677
 20
3.944003049520683
 30
0.0
 10
3.887261255248097
 20
3.940831197548627
 30
0.0
 10
3.883956465818618
 20
3.93448747609757
 30
0.0
 10
3.87820951647398
 20
3.924911204968767
 30
0.0
 10
3.87193987154688
 20
3.915308684516385
 30
0.0
 10
3.867249917173264
 20
3.908924884641968
 30
0.0
 10
3.864904956086438
 20
3.905733006619484
 30
0.0
  0
SPLINE
  5
2A6
330
1F
100
AcDbEntity
  8
0
  6
Continuous
 62
     7
370
     5
100
AcDbSpline
210
0.0
220
0.0
230
1.0
 70
     8
 71
     3
 72
     9
 73
     5
 74
     0
 42
0.0000000001
 43
0.0000000001
 40
0.0
 40
0.0
 40
0.0
 40
0.0
 40
0.373456543208524
 40
0.9999999999999998
 40
0.9999999999999998
 40
0.9999999999999998
 40
0.9999999999999998
 10
3.901102201266106
 20
3.96823301044744
 30
0.0
 10
3.899585173121469
 20
3.965216181220445
 30
0.0
 10
3.895523045486474
 20
3.957138054643585
 30
0.0
 10
3.891459581915181
 20
3.949062644750257
 30
0.0
 10
3.888913645402677
 20
3.944003049520683
 30
0.0
  0
LINE
  5
2A7
330
1F
100
AcDbEntity
  8
0
  6
Continuous
 62
     7
370
     5
100
AcDbLine
 10
3.655660459963379
 20
3.905733006619484
 30
0.0
 11
2.843160456032758
 21
3.905733006619484
 31
0.0
  0
SPLINE
  5
2A8
330
1F
100
AcDbEntity
  8
0
  6
Continuous
 62
     7
370
     5
100
AcDbSpline
210
0.0
220
0.0
230
1.0
 70
    24
 71
     1
 72
     4
 73
     2
 74
     0
 42
0.0000000001
 43
0.0000000001
 40
0.0
 40
0.0
 40
1.0
 40
1.0
 10
2.557610941391784
 20
3.905733006619484
 30
0.0
 10
2.551594010899879
 20
3.916996638167718
 30
0.0
  0
LINE
  5
2A9
330
1F
100
AcDbEntity
  8
0
  6
Continuous
 62
     7
370
     5
100
AcDbLine
 10
2.557610941391784
 20
3.905733006619484
 30
0.0
 11
2.241597938667625
 21
3.905733006619484
 31
0.0
  0
LINE
  5
2AA
330
1F
100
AcDbEntity
  8
0
  6
Continuous
 62
     7
370
     5
100
AcDbLine
 10
1.929097928694407
 20
4.124483006267488
 30
0.0
 11
2.022847939019621
 21
4.030733007400475
 31
0.0
  0
LINE
  5
2AB
330
1F
100
AcDbEntity
  8
0
  6
Continuous
 62
     7
370
     5
100
AcDbLine
 10
4.52284794547288
 20
4.124483006267488
 30
0.0
 11
4.507222992640335
 21
4.124483006267488
 31
0.0
  0
LINE
  5
2AC
330
1F
100
AcDbEntity
  8
0
  6
Continuous
 62
     7
370
     5
100
AcDbLine
 10
1.944723028191924
 20
4.124483006267488
 30
0.0
 11
1.929097928694407
 21
4.124483006267488
 31
0.0
  0
SPLINE
  5
2AD
330
1F
100
AcDbEntity
  8
0
  6
Continuous
 62
     7
370
     5
100
AcDbSpline
210
0.0
220
0.0
230
1.0
 70
     8
 71
     3
 72
    11
 73
     7
 74
     0
 42
0.0000000001
 43
0.0000000001
 40
0.0
 40
0.0
 40
0.0
 40
0.0
 40
0.2497772607590253
 40
0.4995544333935365
 40
0.7497771205398087
 40
1.0
 40
1.0
 40
1.0
 40
1.0
 10
3.272847960579372
 20
3.93797288251502
 30
0.0
 10
3.265045030724896
 20
3.937690430319973
 30
0.0
 10
3.249439173768915
 20
3.937125526029531
 30
0.0
 10
3.226000822828428
 20
3.936912073468961
 30
0.0
 10
3.202548517405188
 20
3.937124255632499
 30
0.0
 10
3.18691481408481
 20
3.937690006815043
 30
0.0
 10
3.179097959420718
 20
3.93797288251502
 30
0.0
  0
LINE
  5
2AE
330
1F
100
AcDbEntity
  8
0
  6
Continuous
 62
     7
370
     5
100
AcDbLine
 10
4.52284794547288
 20
4.124483006267488
 30
0.0
 11
4.52284794547288
 21
4.155733003598186
 31
0.0
  0
LINE
  5
2AF
330
1F
100
AcDbEntity
  8
0
  6
Continuous
 62
     7
370
     5
100
AcDbLine
 10
1.929097928694407
 20
4.155733003598186
 30
0.0
 11
1.929097928694407
 21
4.124483006267488
 31
0.0
  0
LINE
  5
2B0
330
1F
100
AcDbEntity
  8
0
  6
Continuous
 62
     7
370
     5
100
AcDbLine
 10
4.52284794547288
 20
4.155733003598186
 30
0.0
 11
4.507222992640335
 21
4.155733003598186
 31
0.0
  0
LINE
  5
2B1
330
1F
100
AcDbEntity
  8
0
  6
Continuous
 62
     7
370
     5
100
AcDbLine
 10
1.944723028191924
 20
4.155733003598186
 30
0.0
 11
1.929097928694407
 21
4.155733003598186
 31
0.0
  0
ARC
  5
2B2
330
1F
100
AcDbEntity
  8
0
  6
Continuous
 62
     7
370
     5
100
AcDbCircle
 10
4.554097959693449
 20
3.851538013752051
 30
0.0
 40
0.1250000000000003
100
AcDbArc
 50
124.9999999999999
 51
179.9999999999999
  0
ARC
  5
2B3
330
1F
100
AcDbEntity
  8
0
  6
Continuous
 62
     7
370
     5
100
AcDbCircle
 10
1.897847959693449
 20
3.851538013752051
 30
0.0
 40
0.1249999999999998
100
AcDbArc
 50
0.0000000000001878
 51
55.00000000000039
  0
LINE
  5
2B4
330
1F
100
AcDbEntity
  8
0
  6
Continuous
 62
     7
370
     5
100
AcDbLine
 10
4.429097935147666
 20
3.851538007684736
 30
0.0
 11
4.429097935147666
 21
3.843233011958089
 31
0.0
  0
LINE
  5
2B5
330
1F
100
AcDbEntity
  8
0
  6
Continuous
 62
     7
370
     5
100
AcDbLine
 10
2.022847939019621
 20
3.843233011958089
 30
0.0
 11
2.022847939019621
 21
3.851538007684736
 31
0.0
  0
LINE
  5
2B6
330
1F
100
AcDbEntity
  8
0
  6
Continuous
 62
     7
370
     5
100
AcDbLine
 10
4.354347931999414
 20
3.843233011958089
 30
0.0
 11
4.354347931999414
 21
3.992134423502943
 31
0.0
  0
LINE
  5
2B7
330
1F
100
AcDbEntity
  8
0
  6
Continuous
 62
     7
370
     5
100
AcDbLine
 10
4.354347931999414
 20
3.992134423502943
 30
0.0
 11
4.400347933936799
 21
4.030733007400475
 31
0.0
  0
LINE
  5
2B8
330
1F
100
AcDbEntity
  8
0
  6
Continuous
 62
     7
370
     5
100
AcDbLine
 10
4.400347933936799
 20
4.030733007400475
 30
0.0
 11
4.429097935147666
 21
4.030733007400475
 31
0.0
  0
LINE
  5
2B9
330
1F
100
AcDbEntity
  8
0
  6
Continuous
 62
     7
370
     5
100
AcDbLine
 10
4.429097935147666
 20
3.843233011958089
 30
0.0
 11
4.354347931999414
 21
3.843233011958089
 31
0.0
  0
LINE
  5
2BA
330
1F
100
AcDbEntity
  8
0
  6
Continuous
 62
     7
370
     5
100
AcDbLine
 10
4.52284794547288
 20
4.155733003598186
 30
0.0
 11
4.725972992288339
 21
4.155733003598186
 31
0.0
  0
LINE
  5
2BB
330
1F
100
AcDbEntity
  8
0
  6
Continuous
 62
     7
370
     5
100
AcDbLine
 10
2.022847939019621
 20
4.030733007400475
 30
0.0
 11
2.079223021103195
 21
4.030733007400475
 31
0.0
  0
LINE
  5
2BC
330
1F
100
AcDbEntity
  8
0
  6
Continuous
 62
     7
370
     5
100
AcDbLine
 10
2.079223021103195
 20
4.030733007400475
 30
0.0
 11
2.079223021103195
 21
3.843233011958089
 31
0.0
  0
LINE
  5
2BD
330
1F
100
AcDbEntity
  8
0
  6
Continuous
 62
     7
370
     5
100
AcDbLine
 10
2.079223021103195
 20
3.843233011958089
 30
0.0
 11
2.022847939019621
 21
3.843233011958089
 31
0.0
  0
LINE
  5
2BE
330
1F
100
AcDbEntity
  8
0
  6
Continuous
 62
     7
370
     5
100
AcDbLine
 10
1.725972955211434
 20
4.155733003598186
 30
0.0
 11
1.929097928694407
 21
4.155733003598186
 31
0.0
  0
LINE
  5
2BF
330
1F
100
AcDbEntity
  8
0
  6
Continuous
 62
     7
370
     5
100
AcDbLine
 10
4.292021991993991
 20
3.992134423502943
 30
0.0
 11
4.288980307131795
 21
3.992134423502943
 31
0.0
  0
LINE
  5
2C0
330
1F
100
AcDbEntity
  8
0
  6
Continuous
 62
     7
370
     5
100
AcDbLine
 10
4.207847957712951
 20
4.030733007400475
 30
0.0
 11
4.253847959650337
 21
3.992134423502943
 31
0.0
  0
LINE
  5
2C1
330
1F
100
AcDbEntity
  8
0
  6
Continuous
 62
     7
370
     5
100
AcDbLine
 10
4.147847977504509
 20
4.030733007400475
 30
0.0
 11
4.147847977504509
 21
3.843233011958089
 31
0.0
  0
LINE
  5
2C2
330
1F
100
AcDbEntity
  8
0
  6
Continuous
 62
     7
370
     5
100
AcDbLine
 10
4.253847959650337
 20
3.992134423502943
 30
0.0
 11
4.253847959650337
 21
3.843233011958089
 31
0.0
  0
LINE
  5
2C3
330
1F
100
AcDbEntity
  8
0
  6
Continuous
 62
     7
370
     5
100
AcDbLine
 10
4.147847977504509
 20
4.030733007400475
 30
0.0
 11
4.207847957712951
 21
4.030733007400475
 31
0.0
  0
LINE
  5
2C4
330
1F
100
AcDbEntity
  8
0
  6
Continuous
 62
     7
370
     5
100
AcDbLine
 10
4.253847959650337
 20
3.843233011958089
 30
0.0
 11
4.147847977504509
 21
3.843233011958089
 31
0.0
  0
LINE
  5
2C5
330
1F
100
AcDbEntity
  8
0
  6
Continuous
 62
     7
370
     5
100
AcDbLine
 10
4.354347931999414
 20
3.843233011958089
 30
0.0
 11
4.351597963767281
 21
3.843233011958089
 31
0.0
  0
LINE
  5
2C6
330
1F
100
AcDbEntity
  8
0
  6
Continuous
 62
     7
370
     5
100
AcDbLine
 10
4.256597927882469
 20
3.843233011958089
 30
0.0
 11
4.253847959650337
 21
3.843233011958089
 31
0.0
  0
LINE
  5
2C7
330
1F
100
AcDbEntity
  8
0
  6
Continuous
 62
     7
370
     5
100
AcDbLine
 10
2.153972950918961
 20
3.843233011958089
 30
0.0
 11
2.153972950918961
 21
4.030733007400475
 31
0.0
  0
LINE
  5
2C8
330
1F
100
AcDbEntity
  8
0
  6
Continuous
 62
     7
370
     5
100
AcDbLine
 10
2.241597938667625
 20
3.843233011958089
 30
0.0
 11
2.241597938667625
 21
4.030733007400475
 31
0.0
  0
LINE
  5
2C9
330
1F
100
AcDbEntity
  8
0
  6
Continuous
 62
     7
370
     5
100
AcDbLine
 10
2.153972950918961
 20
4.030733007400475
 30
0.0
 11
2.241597938667625
 21
4.030733007400475
 31
0.0
  0
LINE
  5
2CA
330
1F
100
AcDbEntity
  8
0
  6
Continuous
 62
     7
370
     5
100
AcDbLine
 10
2.241597938667625
 20
3.843233011958089
 30
0.0
 11
2.153972950918961
 21
3.843233011958089
 31
0.0
  0
LINE
  5
2CB
330
1F
100
AcDbEntity
  8
0
  6
Continuous
 62
     7
370
     5
100
AcDbLine
 10
2.153972950918961
 20
3.843233011958089
 30
0.0
 11
2.079223021103195
 21
3.843233011958089
 31
0.0
  0
LINE
  5
2CC
330
1F
100
AcDbEntity
  8
0
  6
Continuous
 62
     7
370
     5
100
AcDbLine
 10
2.557610941391784
 20
3.843233011958089
 30
0.0
 11
2.557610941391784
 21
3.905733006619484
 31
0.0
  0
LINE
  5
2CD
330
1F
100
AcDbEntity
  8
0
  6
Continuous
 62
     7
370
     5
100
AcDbLine
 10
2.557610941391784
 20
3.843233011958089
 30
0.0
 11
2.241597938667625
 21
3.843233011958089
 31
0.0
  0
LINE
  5
2CE
330
1F
100
AcDbEntity
  8
0
  6
Continuous
 62
     7
370
     5
100
AcDbLine
 10
3.864904956086438
 20
3.905733006619484
 30
0.0
 11
3.864904956086438
 21
3.843233011958089
 31
0.0
  0
LINE
  5
2CF
330
1F
100
AcDbEntity
  8
0
  6
Continuous
 62
     7
370
     5
100
AcDbLine
 10
4.147847977504509
 20
3.843233011958089
 30
0.0
 11
3.864904956086438
 21
3.843233011958089
 31
0.0
  0
LINE
  5
2D0
330
1F
100
AcDbEntity
  8
0
  6
Continuous
 62
     7
370
     5
100
AcDbLine
 10
2.241788529799233
 20
3.93797288251502
 30
0.0
 11
2.241788529799233
 21
4.030733007400475
 31
0.0
  0
LINE
  5
2D1
330
1F
100
AcDbEntity
  8
0
  6
Continuous
 62
     7
370
     5
100
AcDbLine
 10
3.655660459963379
 20
3.843233011958089
 30
0.0
 11
2.843160456032758
 21
3.843233011958089
 31
0.0
  0
LINE
  5
2D2
330
1F
100
AcDbEntity
  8
0
  6
Continuous
 62
     7
370
     5
100
AcDbLine
 10
2.843160456032758
 20
3.843233011958089
 30
0.0
 11
2.557610941391784
 21
3.843233011958089
 31
0.0
  0
LINE
  5
2D3
330
1F
100
AcDbEntity
  8
0
  6
Continuous
 62
     7
370
     5
100
AcDbLine
 10
3.864904956086438
 20
3.843233011958089
 30
0.0
 11
3.655660459963379
 21
3.843233011958089
 31
0.0
  0
LINE
  5
2D4
330
1F
100
AcDbEntity
  8
0
  6
Continuous
 62
     7
370
     5
100
AcDbLine
 10
3.179097959420718
 20
3.93797288251502
 30
0.0
 11
3.179097959420718
 21
3.96823301044744
 31
0.0
  0
LINE
  5
2D5
330
1F
100
AcDbEntity
  8
0
  6
Continuous
 62
     7
370
     5
100
AcDbLine
 10
3.272847960579372
 20
3.93797288251502
 30
0.0
 11
3.272847960579372
 21
3.96823301044744
 31
0.0
  0
LINE
  5
2D6
330
1F
100
AcDbEntity
  8
0
  6
Continuous
 62
     7
370
     5
100
AcDbLine
 10
4.179097956502086
 20
3.833233009145642
 30
0.0
 11
4.179097956502086
 21
3.706098659479164
 31
0.0
  0
SPLINE
  5
2D7
330
1F
100
AcDbEntity
  8
0
  6
Continuous
 62
     7
370
     5
100
AcDbSpline
210
0.0
220
0.0
230
1.0
 70
    24
 71
     1
 72
     4
 73
     2
 74
     0
 42
0.0000000001
 43
0.0000000001
 40
0.0
 40
0.0
 40
1.0
 40
1.0
 10
2.534847951018458
 20
3.76486023732707
 30
0.0
 10
2.578657291595884
 20
3.741527490202289
 30
0.0
  0
SPLINE
  5
2D8
330
1F
100
AcDbEntity
  8
0
  6
Continuous
 62
     7
370
     5
100
AcDbSpline
210
0.0
220
0.0
230
1.0
 70
     8
 71
     3
 72
    39
 73
    35
 74
     0
 42
0.0000000001
 43
0.0000000001
 40
0.0
 40
0.0
 40
0.0
 40
0.0
 40
0.0337638919794262
 40
0.0676478204425576
 40
0.1015313358712974
 40
0.1352945093339077
 40
0.1690823812736726
 40
0.2029938791128518
 40
0.2369021247040282
 40
0.2706854169760318
 40
0.3040310261375567
 40
0.3375043430376847
 40
0.3709728151679998
 40
0.404311756894199
 40
0.4364519063085018
 40
0.4687160511668742
 40
0.5009766200777106
 40
0.533111823360782
 40
0.5639946173684736
 40
0.5949919066888457
 40
0.6259889528572958
 40
0.6568715495429426
 40
0.6871782683857191
 40
0.7175907387387338
 40
0.7480058517072301
 40
0.7783162023717282
 40
0.8090105952071599
 40
0.8398076763470953
 40
0.8706084716002548
 40
0.9013078296253379
 40
0.9330895140190472
 40
0.9649767809378001
 40
0.9968671819454575
 40
1.0
 40
1.0
 40
1.0
 40
1.0
 10
2.578657291595884
 20
3.741527490202289
 30
0.0
 10
2.580546381853046
 20
3.740561801053967
 30
0.0
 10
2.584331278410413
 20
3.73862698956515
 30
0.0
 10
2.591005232203948
 20
3.735709115550976
 30
0.0
 10
2.598337319239984
 20
3.732807325147629
 30
0.0
 10
2.606352488206711
 20
3.729942298152733
 30
0.0
 10
2.61500234101366
 20
3.727134109020758
 30
0.0
 10
2.624226468950181
 20
3.724401655445008
 30
0.0
 10
2.633944917418227
 20
3.721771047698255
 30
0.0
 10
2.644040279032042
 20
3.71927952749709
 30
0.0
 10
2.65445761108678
 20
3.716949516783452
 30
0.0
 10
2.665119295056864
 20
3.714795495797919
 30
0.0
 10
2.675979313120515
 20
3.712830243941351
 30
0.0
 10
2.686814789854425
 20
3.711099808706736
 30
0.0
 10
2.697552093863927
 20
3.709620615369491
 30
0.0
 10
2.708122434517773
 20
3.708390736964071
 30
0.0
 10
2.718565698971679
 20
3.707405279302018
 30
0.0
 10
2.72865516392244
 20
3.706689483434848
 30
0.0
 10
2.738323635387258
 20
3.706248874554212
 30
0.0
 10
2.747534394566677
 20
3.706067148815298
 30
0.0
 10
2.756341711860417
 20
3.706137756311338
 30
0.0
 10
2.764616224769725
 20
3.706460869105132
 30
0.0
 10
2.772301363365242
 20
3.707035644090961
 30
0.0
 10
2.779382661675612
 20
3.707842231327095
 30
0.0
 10
2.785860340834304
 20
3.708872382252928
 30
0.0
 10
2.79170704957355
 20
3.710121543812597
 30
0.0
 10
2.796865139338287
 20
3.711586879450949
 30
0.0
 10
2.801320270093647
 20
3.71325158894533
 30
0.0
 10
2.805031014052585
 20
3.715090608425143
 30
0.0
 10
2.807997689589419
 20
3.717110678587459
 30
0.0
 10
2.810187643284958
 20
3.719302688619868
 30
0.0
 10
2.811471833238686
 20
3.72166279525448
 30
0.0
 10
2.812014208857776
 20
3.723369932348887
 30
0.0
 10
2.811879717726998
 20
3.724307475191317
 30
0.0
 10
2.81186768752949
 20
3.724391338160579
 30
0.0
  0
LINE
  5
2D9
330
1F
100
AcDbEntity
  8
0
  6
Continuous
 62
     7
370
     5
100
AcDbLine
 10
4.100972972341903
 20
3.685165131305068
 30
0.0
 11
4.179097956502086
 21
3.706098659479164
 31
0.0
  0
LINE
  5
2DA
330
1F
100
AcDbEntity
  8
0
  6
Continuous
 62
     7
370
     5
100
AcDbLine
 10
4.100972972341903
 20
3.685165131305068
 30
0.0
 11
2.35097297515787
 21
3.685165131305068
 31
0.0
  0
LINE
  5
2DB
330
1F
100
AcDbEntity
  8
0
  6
Continuous
 62
     7
370
     5
100
AcDbLine
 10
2.053546824383478
 20
3.76486023732707
 30
0.0
 11
2.35097297515787
 21
3.685165131305068
 31
0.0
  0
LINE
  5
2DC
330
1F
100
AcDbEntity
  8
0
  6
Continuous
 62
     7
370
     5
100
AcDbLine
 10
4.163472930337055
 20
3.601272217109839
 30
0.0
 11
4.147847977504509
 21
3.585647227611051
 31
0.0
  0
LINE
  5
2DD
330
1F
100
AcDbEntity
  8
0
  6
Continuous
 62
     7
370
     5
100
AcDbLine
 10
2.304097969995263
 20
3.585647227611051
 30
0.0
 11
2.288472943830232
 21
3.601272217109839
 31
0.0
  0
LINE
  5
2DE
330
1F
100
AcDbEntity
  8
0
  6
Continuous
 62
     7
370
     5
100
AcDbLine
 10
2.288472943830232
 20
3.570022238112263
 30
0.0
 11
2.304097969995263
 21
3.585647227611051
 31
0.0
  0
LINE
  5
2DF
330
1F
100
AcDbEntity
  8
0
  6
Continuous
 62
     7
370
     5
100
AcDbLine
 10
4.147847977504509
 20
3.585647227611051
 30
0.0
 11
4.163472930337055
 21
3.570022238112263
 31
0.0
  0
LINE
  5
2E0
330
1F
100
AcDbEntity
  8
0
  6
Continuous
 62
     7
370
     5
100
AcDbLine
 10
2.288472943830232
 20
3.601272217109839
 30
0.0
 11
2.304097969995263
 21
3.61689724327487
 31
0.0
  0
LINE
  5
2E1
330
1F
100
AcDbEntity
  8
0
  6
Continuous
 62
     7
370
     5
100
AcDbLine
 10
4.147847977504509
 20
3.61689724327487
 30
0.0
 11
4.163472930337055
 21
3.601272217109839
 31
0.0
  0
LINE
  5
2E2
330
1F
100
AcDbEntity
  8
0
  6
Continuous
 62
     7
370
     5
100
AcDbLine
 10
4.304097945824875
 20
3.687803744156921
 30
0.0
 11
4.33809796638707
 21
3.70823300148973
 31
0.0
  0
LINE
  5
2E3
330
1F
100
AcDbEntity
  8
0
  6
Continuous
 62
     7
370
     5
100
AcDbLine
 10
4.270097925262681
 20
3.70823300148973
 30
0.0
 11
4.304097945824875
 21
3.687803744156921
 31
0.0
  0
LINE
  5
2E4
330
1F
100
AcDbEntity
  8
0
  6
Continuous
 62
     7
370
     5
100
AcDbLine
 10
2.288472943830232
 20
3.538772222448443
 30
0.0
 11
2.304097969995263
 21
3.554397248613474
 31
0.0
  0
LINE
  5
2E5
330
1F
100
AcDbEntity
  8
0
  6
Continuous
 62
     7
370
     5
100
AcDbLine
 10
4.147847977504509
 20
3.554397248613474
 30
0.0
 11
4.163472930337055
 21
3.538772222448443
 31
0.0
  0
LINE
  5
2E6
330
1F
100
AcDbEntity
  8
0
  6
Continuous
 62
     7
370
     5
100
AcDbLine
 10
4.163472930337055
 20
3.570022238112263
 30
0.0
 11
4.147847977504509
 21
3.554397248613474
 31
0.0
  0
LINE
  5
2E7
330
1F
100
AcDbEntity
  8
0
  6
Continuous
 62
     7
370
     5
100
AcDbLine
 10
2.304097969995263
 20
3.554397248613474
 30
0.0
 11
2.288472943830232
 21
3.570022238112263
 31
0.0
  0
LINE
  5
2E8
330
1F
100
AcDbEntity
  8
0
  6
Continuous
 62
     7
370
     5
100
AcDbLine
 10
4.163472930337055
 20
3.195022270143892
 30
0.0
 11
4.147847977504509
 21
3.179397243978861
 31
0.0
  0
LINE
  5
2E9
330
1F
100
AcDbEntity
  8
0
  6
Continuous
 62
     7
370
     5
100
AcDbLine
 10
2.304097969995263
 20
3.179397243978861
 30
0.0
 11
2.288472943830232
 21
3.195022270143892
 31
0.0
  0
LINE
  5
2EA
330
1F
100
AcDbEntity
  8
0
  6
Continuous
 62
     7
370
     5
100
AcDbLine
 10
2.288472943830232
 20
3.195022270143892
 30
0.0
 11
2.304097969995263
 21
3.210647222976438
 31
0.0
  0
LINE
  5
2EB
330
1F
100
AcDbEntity
  8
0
  6
Continuous
 62
     7
370
     5
100
AcDbLine
 10
4.147847977504509
 20
3.210647222976438
 30
0.0
 11
4.163472930337055
 21
3.195022270143892
 31
0.0
  0
LINE
  5
2EC
330
1F
100
AcDbEntity
  8
0
  6
Continuous
 62
     7
370
     5
100
AcDbLine
 10
4.163472930337055
 20
3.538772222448443
 30
0.0
 11
4.147847977504509
 21
3.523147232949656
 31
0.0
  0
LINE
  5
2ED
330
1F
100
AcDbEntity
  8
0
  6
Continuous
 62
     7
370
     5
100
AcDbLine
 10
2.304097969995263
 20
3.523147232949656
 30
0.0
 11
2.288472943830232
 21
3.538772222448443
 31
0.0
  0
LINE
  5
2EE
330
1F
100
AcDbEntity
  8
0
  6
Continuous
 62
     7
370
     5
100
AcDbLine
 10
2.288472943830232
 20
3.070022207488616
 30
0.0
 11
2.304097969995263
 21
3.085647233653647
 31
0.0
  0
LINE
  5
2EF
330
1F
100
AcDbEntity
  8
0
  6
Continuous
 62
     7
370
     5
100
AcDbLine
 10
4.147847977504509
 20
3.085647233653647
 30
0.0
 11
4.163472930337055
 21
3.070022207488616
 31
0.0
  0
LINE
  5
2F0
330
1F
100
AcDbEntity
  8
0
  6
Continuous
 62
     7
370
     5
100
AcDbLine
 10
4.163472930337055
 20
3.101272259818678
 30
0.0
 11
4.147847977504509
 21
3.085647233653647
 31
0.0
  0
LINE
  5
2F1
330
1F
100
AcDbEntity
  8
0
  6
Continuous
 62
     7
370
     5
100
AcDbLine
 10
2.304097969995263
 20
3.085647233653647
 30
0.0
 11
2.288472943830232
 21
3.101272259818678
 31
0.0
  0
LINE
  5
2F2
330
1F
100
AcDbEntity
  8
0
  6
Continuous
 62
     7
370
     5
100
AcDbLine
 10
2.288472943830232
 20
3.101272259818678
 30
0.0
 11
2.304097969995263
 21
3.116897212651223
 31
0.0
  0
LINE
  5
2F3
330
1F
100
AcDbEntity
  8
0
  6
Continuous
 62
     7
370
     5
100
AcDbLine
 10
4.147847977504509
 20
3.116897212651223
 30
0.0
 11
4.163472930337055
 21
3.101272259818678
 31
0.0
  0
LINE
  5
2F4
330
1F
100
AcDbEntity
  8
0
  6
Continuous
 62
     7
370
     5
100
AcDbLine
 10
4.163472930337055
 20
3.132522238816255
 30
0.0
 11
4.147847977504509
 21
3.116897212651223
 31
0.0
  0
LINE
  5
2F5
330
1F
100
AcDbEntity
  8
0
  6
Continuous
 62
     7
370
     5
100
AcDbLine
 10
2.304097969995263
 20
3.116897212651223
 30
0.0
 11
2.288472943830232
 21
3.132522238816255
 31
0.0
  0
LINE
  5
2F6
330
1F
100
AcDbEntity
  8
0
  6
Continuous
 62
     7
370
     5
100
AcDbLine
 10
4.15882416404
 20
3.627873466476603
 30
0.0
 11
4.147847977504509
 21
3.61689724327487
 31
0.0
  0
LINE
  5
2F7
330
1F
100
AcDbEntity
  8
0
  6
Continuous
 62
     7
370
     5
100
AcDbLine
 10
2.304097969995263
 20
3.61689724327487
 30
0.0
 11
2.293121710127287
 21
3.627873466476603
 31
0.0
  0
LINE
  5
2F8
330
1F
100
AcDbEntity
  8
0
  6
Continuous
 62
     7
370
     5
100
AcDbLine
 10
2.288472943830232
 20
3.132522238816255
 30
0.0
 11
2.304097969995263
 21
3.148147264981286
 31
0.0
  0
LINE
  5
2F9
330
1F
100
AcDbEntity
  8
0
  6
Continuous
 62
     7
370
     5
100
AcDbLine
 10
4.147847977504509
 20
3.148147264981286
 30
0.0
 11
4.163472930337055
 21
3.132522238816255
 31
0.0
  0
LINE
  5
2FA
330
1F
100
AcDbEntity
  8
0
  6
Continuous
 62
     7
370
     5
100
AcDbLine
 10
4.163472930337055
 20
3.16377221781383
 30
0.0
 11
4.147847977504509
 21
3.148147264981286
 31
0.0
  0
LINE
  5
2FB
330
1F
100
AcDbEntity
  8
0
  6
Continuous
 62
     7
370
     5
100
AcDbLine
 10
2.304097969995263
 20
3.148147264981286
 30
0.0
 11
2.288472943830232
 21
3.16377221781383
 31
0.0
  0
LINE
  5
2FC
330
1F
100
AcDbEntity
  8
0
  6
Continuous
 62
     7
370
     5
100
AcDbLine
 10
2.288472943830232
 20
3.16377221781383
 30
0.0
 11
2.304097969995263
 21
3.179397243978861
 31
0.0
  0
LINE
  5
2FD
330
1F
100
AcDbEntity
  8
0
  6
Continuous
 62
     7
370
     5
100
AcDbLine
 10
4.147847977504509
 20
3.179397243978861
 30
0.0
 11
4.163472930337055
 21
3.16377221781383
 31
0.0
  0
LINE
  5
2FE
330
1F
100
AcDbEntity
  8
0
  6
Continuous
 62
     7
370
     5
100
AcDbLine
 10
4.444722961312697
 20
3.833233009145642
 30
0.0
 11
4.444722961312697
 21
3.861995531878525
 31
0.0
  0
LINE
  5
2FF
330
1F
100
AcDbEntity
  8
0
  6
Continuous
 62
     7
370
     5
100
AcDbLine
 10
2.5115583600618
 20
3.833233009145642
 30
0.0
 11
2.5115583600618
 21
3.825230601590137
 31
0.0
  0
LINE
  5
300
330
1F
100
AcDbEntity
  8
0
  6
Continuous
 62
     7
370
     5
100
AcDbLine
 10
2.007222986187076
 20
3.861995531878525
 30
0.0
 11
2.007222986187076
 21
3.825230601590137
 31
0.0
  0
LINE
  5
301
330
1F
100
AcDbEntity
  8
0
  6
Continuous
 62
     7
370
     5
100
AcDbLine
 10
4.163472930337055
 20
3.070022207488616
 30
0.0
 11
4.159650987821794
 21
3.066200264973356
 31
0.0
  0
LINE
  5
302
330
1F
100
AcDbEntity
  8
0
  6
Continuous
 62
     7
370
     5
100
AcDbLine
 10
2.292294959677979
 20
3.066200264973356
 30
0.0
 11
2.288472943830232
 21
3.070022207488616
 31
0.0
  0
LINE
  5
303
330
1F
100
AcDbEntity
  8
0
  6
Continuous
 62
     7
370
     5
100
AcDbLine
 10
4.100972972341903
 20
3.066200264973356
 30
0.0
 11
4.100972972341903
 21
3.685165131305068
 31
0.0
  0
LINE
  5
304
330
1F
100
AcDbEntity
  8
0
  6
Continuous
 62
     7
370
     5
100
AcDbLine
 10
4.100972972341903
 20
3.066200264973356
 30
0.0
 11
2.35097297515787
 21
3.066200264973356
 31
0.0
  0
LINE
  5
305
330
1F
100
AcDbEntity
  8
0
  6
Continuous
 62
     7
370
     5
100
AcDbLine
 10
2.35097297515787
 20
3.685165131305068
 30
0.0
 11
2.35097297515787
 21
3.066200264973356
 31
0.0
  0
LINE
  5
306
330
1F
100
AcDbEntity
  8
0
  6
Continuous
 62
     7
370
     5
100
AcDbLine
 10
4.163472930337055
 20
3.226272249141469
 30
0.0
 11
4.147847977504509
 21
3.210647222976438
 31
0.0
  0
LINE
  5
307
330
1F
100
AcDbEntity
  8
0
  6
Continuous
 62
     7
370
     5
100
AcDbLine
 10
2.304097969995263
 20
3.210647222976438
 30
0.0
 11
2.288472943830232
 21
3.226272249141469
 31
0.0
  0
LINE
  5
308
330
1F
100
AcDbEntity
  8
0
  6
Continuous
 62
     7
370
     5
100
AcDbLine
 10
4.487291296226326
 20
3.715885943082296
 30
0.0
 11
4.15882416404
 21
3.627873466476603
 31
0.0
  0
LINE
  5
309
330
1F
100
AcDbEntity
  8
0
  6
Continuous
 62
     7
370
     5
100
AcDbLine
 10
2.293121710127287
 20
3.627873466476603
 30
0.0
 11
1.964654651273447
 21
3.715885943082296
 31
0.0
  0
ARC
  5
30A
330
1F
100
AcDbEntity
  8
0
  6
Continuous
 62
     7
370
     5
100
AcDbCircle
 10
4.454938900326998
 20
3.836626683084938
 30
0.0
 40
0.1250000000000004
100
AcDbArc
 50
285.0000000000008
 51
344.5099088441494
  0
ARC
  5
30B
330
1F
100
AcDbEntity
  8
0
  6
Continuous
 62
     7
370
     5
100
AcDbCircle
 10
1.9970070190599
 20
3.836626683084938
 30
0.0
 40
0.1250000000000003
100
AcDbArc
 50
195.4900911558523
 51
255.0000000000005
  0
ARC
  5
30C
330
1F
100
AcDbEntity
  8
0
  6
Continuous
 62
     7
370
     5
100
AcDbCircle
 10
4.725972959693447
 20
3.76151276184963
 30
0.0
 40
0.1562500000000002
100
AcDbArc
 50
90.0
 51
164.5099088441487
  0
ARC
  5
30D
330
1F
100
AcDbEntity
  8
0
  6
Continuous
 62
     7
370
     5
100
AcDbCircle
 10
1.725972959693451
 20
3.76151276184963
 30
0.0
 40
0.15625
100
AcDbArc
 50
15.49009115585134
 51
90.0
  0
LINE
  5
30E
330
1F
100
AcDbEntity
  8
0
  6
Continuous
 62
     7
370
     5
100
AcDbLine
 10
4.788472950283491
 20
4.16776275796277
 30
0.0
 11
4.788472950283491
 21
3.917762760984068
 31
0.0
  0
LINE
  5
30F
330
1F
100
AcDbEntity
  8
0
  6
Continuous
 62
     7
370
     5
100
AcDbLine
 10
4.788472950283491
 20
4.16776275796277
 30
0.0
 11
1.663472997216282
 21
4.16776275796277
 31
0.0
  0
LINE
  5
310
330
1F
100
AcDbEntity
  8
0
  6
Continuous
 62
     7
370
     5
100
AcDbLine
 10
1.663472997216282
 20
3.917762760984068
 30
0.0
 11
1.663472997216282
 21
4.16776275796277
 31
0.0
  0
SPLINE
  5
311
330
1F
100
AcDbEntity
  8
0
  6
Continuous
 62
     7
370
     5
100
AcDbSpline
210
0.0
220
0.0
230
1.0
 70
     8
 71
     3
 72
    24
 73
    20
 74
     0
 42
0.0000000001
 43
0.0000000001
 40
0.0
 40
0.0
 40
0.0
 40
0.0
 40
0.052762690783181
 40
0.1055252771714452
 40
0.1593445927122804
 40
0.2131643515963478
 40
0.2762530020175573
 40
0.3393422001932622
 40
0.4042570950065042
 40
0.4691724254809099
 40
0.5323881610150746
 40
0.5956044590996764
 40
0.6606390796808639
 40
0.7256745371287022
 40
0.7891969764536576
 40
0.852719463760139
 40
0.9180682433799912
 40
0.9834170327724237
 40
1.0
 40
1.0
 40
1.0
 40
1.0
 10
2.5115583600618
 20
3.825230601590137
 30
0.0
 10
2.511572903550214
 20
3.823788598716326
 30
0.0
 10
2.511601990498264
 20
3.820904595821815
 30
0.0
 10
2.51183727278249
 20
3.816570733217282
 30
0.0
 10
2.5122163671972
 20
3.812250925494672
 30
0.0
 10
2.512784142504179
 20
3.807721982809077
 30
0.0
 10
2.51356491248381
 20
3.803052073196668
 30
0.0
 10
2.51459577946449
 20
3.798248362146269
 30
0.0
 10
2.515837813058783
 20
3.793591543700516
 30
0.0
 10
2.517273524827382
 20
3.789159144479112
 30
0.0
 10
2.518876937736092
 20
3.785021880499909
 30
0.0
 10
2.520646210673645
 20
3.78116030007514
 30
0.0
 10
2.522590352637295
 20
3.777576575708272
 30
0.0
 10
2.524682134964213
 20
3.77432888098367
 30
0.0
 10
2.526885775074124
 20
3.771468011277632
 30
0.0
 10
2.529203346821923
 20
3.768974476199348
 30
0.0
 10
2.531641062981989
 20
3.766863733023197
 30
0.0
 10
2.533549719687247
 20
3.765570788441785
 30
0.0
 10
2.534629419952457
 20
3.764979844279093
 30
0.0
 10
2.534847951018458
 20
3.76486023732707
 30
0.0
  0
ARC
  5
312
330
1F
100
AcDbEntity
  8
0
  6
Continuous
 62
     7
370
     5
100
AcDbCircle
 10
2.069722959693449
 20
3.825230600674763
 30
0.0
 40
0.0625000000000003
100
AcDbArc
 50
179.9999999999996
 51
255.000000000001
  0
LINE
  5
313
330
1F
100
AcDbEntity
  8
0
  6
Continuous
 62
     7
370
     5
100
AcDbLine
 10
4.147847977504509
 20
3.523147232949656
 30
0.0
 11
4.163472930337055
 21
3.507522243450868
 31
0.0
  0
LINE
  5
314
330
1F
100
AcDbEntity
  8
0
  6
Continuous
 62
     7
370
     5
100
AcDbLine
 10
4.163472930337055
 20
3.507522243450868
 30
0.0
 11
4.147847977504509
 21
3.491897217285837
 31
0.0
  0
LINE
  5
315
330
1F
100
AcDbEntity
  8
0
  6
Continuous
 62
     7
370
     5
100
AcDbLine
 10
4.147847977504509
 20
3.491897217285837
 30
0.0
 11
4.163472930337055
 21
3.476272227787049
 31
0.0
  0
LINE
  5
316
330
1F
100
AcDbEntity
  8
0
  6
Continuous
 62
     7
370
     5
100
AcDbLine
 10
4.163472930337055
 20
3.476272227787049
 30
0.0
 11
4.147847977504509
 21
3.46064723828826
 31
0.0
  0
LINE
  5
317
330
1F
100
AcDbEntity
  8
0
  6
Continuous
 62
     7
370
     5
100
AcDbLine
 10
4.147847977504509
 20
3.46064723828826
 30
0.0
 11
4.163472930337055
 21
3.445022248789473
 31
0.0
  0
LINE
  5
318
330
1F
100
AcDbEntity
  8
0
  6
Continuous
 62
     7
370
     5
100
AcDbLine
 10
4.163472930337055
 20
3.445022248789473
 30
0.0
 11
4.147847977504509
 21
3.429397222624441
 31
0.0
  0
LINE
  5
319
330
1F
100
AcDbEntity
  8
0
  6
Continuous
 62
     7
370
     5
100
AcDbLine
 10
4.147847977504509
 20
3.429397222624441
 30
0.0
 11
4.163472930337055
 21
3.413772269791897
 31
0.0
  0
LINE
  5
31A
330
1F
100
AcDbEntity
  8
0
  6
Continuous
 62
     7
370
     5
100
AcDbLine
 10
4.163472930337055
 20
3.413772269791897
 30
0.0
 11
4.147847977504509
 21
3.398147243626866
 31
0.0
  0
LINE
  5
31B
330
1F
100
AcDbEntity
  8
0
  6
Continuous
 62
     7
370
     5
100
AcDbLine
 10
4.147847977504509
 20
3.398147243626866
 30
0.0
 11
4.163472930337055
 21
3.382522217461835
 31
0.0
  0
LINE
  5
31C
330
1F
100
AcDbEntity
  8
0
  6
Continuous
 62
     7
370
     5
100
AcDbLine
 10
4.163472930337055
 20
3.382522217461835
 30
0.0
 11
4.147847977504509
 21
3.36689726462929
 31
0.0
  0
LINE
  5
31D
330
1F
100
AcDbEntity
  8
0
  6
Continuous
 62
     7
370
     5
100
AcDbLine
 10
4.147847977504509
 20
3.36689726462929
 30
0.0
 11
4.163472930337055
 21
3.351272238464258
 31
0.0
  0
LINE
  5
31E
330
1F
100
AcDbEntity
  8
0
  6
Continuous
 62
     7
370
     5
100
AcDbLine
 10
4.163472930337055
 20
3.351272238464258
 30
0.0
 11
4.147847977504509
 21
3.335647212299227
 31
0.0
  0
LINE
  5
31F
330
1F
100
AcDbEntity
  8
0
  6
Continuous
 62
     7
370
     5
100
AcDbLine
 10
4.147847977504509
 20
3.335647212299227
 30
0.0
 11
4.163472930337055
 21
3.320022259466683
 31
0.0
  0
LINE
  5
320
330
1F
100
AcDbEntity
  8
0
  6
Continuous
 62
     7
370
     5
100
AcDbLine
 10
4.163472930337055
 20
3.320022259466683
 30
0.0
 11
4.147847977504509
 21
3.304397233301652
 31
0.0
  0
LINE
  5
321
330
1F
100
AcDbEntity
  8
0
  6
Continuous
 62
     7
370
     5
100
AcDbLine
 10
4.147847977504509
 20
3.304397233301652
 30
0.0
 11
4.163472930337055
 21
3.28877220713662
 31
0.0
  0
LINE
  5
322
330
1F
100
AcDbEntity
  8
0
  6
Continuous
 62
     7
370
     5
100
AcDbLine
 10
4.163472930337055
 20
3.28877220713662
 30
0.0
 11
4.147847977504509
 21
3.273147254304075
 31
0.0
  0
LINE
  5
323
330
1F
100
AcDbEntity
  8
0
  6
Continuous
 62
     7
370
     5
100
AcDbLine
 10
4.147847977504509
 20
3.273147254304075
 30
0.0
 11
4.163472930337055
 21
3.257522228139044
 31
0.0
  0
LINE
  5
324
330
1F
100
AcDbEntity
  8
0
  6
Continuous
 62
     7
370
     5
100
AcDbLine
 10
4.163472930337055
 20
3.257522228139044
 30
0.0
 11
4.147847977504509
 21
3.241897201974013
 31
0.0
  0
LINE
  5
325
330
1F
100
AcDbEntity
  8
0
  6
Continuous
 62
     7
370
     5
100
AcDbLine
 10
4.147847977504509
 20
3.241897201974013
 30
0.0
 11
4.163472930337055
 21
3.226272249141469
 31
0.0
  0
LINE
  5
326
330
1F
100
AcDbEntity
  8
0
  6
Continuous
 62
     7
370
     5
100
AcDbLine
 10
4.159650987821794
 20
3.066200264973356
 30
0.0
 11
4.100972972341903
 21
3.066200264973356
 31
0.0
  0
LINE
  5
327
330
1F
100
AcDbEntity
  8
0
  6
Continuous
 62
     7
370
     5
100
AcDbLine
 10
4.270097925262681
 20
3.833233009145642
 30
0.0
 11
4.179097956502086
 21
3.833233009145642
 31
0.0
  0
LINE
  5
328
330
1F
100
AcDbEntity
  8
0
  6
Continuous
 62
     7
370
     5
100
AcDbLine
 10
4.270097925262681
 20
3.833233009145642
 30
0.0
 11
4.270097925262681
 21
3.70823300148973
 31
0.0
  0
LINE
  5
329
330
1F
100
AcDbEntity
  8
0
  6
Continuous
 62
     7
370
     5
100
AcDbLine
 10
4.33809796638707
 20
3.70823300148973
 30
0.0
 11
4.33809796638707
 21
3.833233009145642
 31
0.0
  0
LINE
  5
32A
330
1F
100
AcDbEntity
  8
0
  6
Continuous
 62
     7
370
     5
100
AcDbLine
 10
4.444722961312697
 20
3.833233009145642
 30
0.0
 11
4.33809796638707
 21
3.833233009145642
 31
0.0
  0
ARC
  5
32B
330
1F
100
AcDbEntity
  8
0
  6
Continuous
 62
     7
370
     5
100
AcDbCircle
 10
4.569722959693449
 20
3.861995539271076
 30
0.0
 40
0.125
100
AcDbArc
 50
125.0
 51
180.0
  0
LINE
  5
32C
330
1F
100
AcDbEntity
  8
0
  6
Continuous
 62
     7
370
     5
100
AcDbLine
 10
4.498025925552306
 20
3.964389544847482
 30
0.0
 11
4.788472950283491
 21
4.16776275796277
 31
0.0
  0
LINE
  5
32D
330
1F
100
AcDbEntity
  8
0
  6
Continuous
 62
     7
370
     5
100
AcDbLine
 10
4.788472950283491
 20
3.917762760984068
 30
0.0
 11
4.725972992288339
 21
3.917762760984068
 31
0.0
  0
LINE
  5
32E
330
1F
100
AcDbEntity
  8
0
  6
Continuous
 62
     7
370
     5
100
AcDbLine
 10
1.663472997216282
 20
4.16776275796277
 30
0.0
 11
1.953919948614981
 21
3.964389544847482
 31
0.0
  0
ARC
  5
32F
330
1F
100
AcDbEntity
  8
0
  6
Continuous
 62
     7
370
     5
100
AcDbCircle
 10
1.882222959693449
 20
3.861995539271076
 30
0.0
 40
0.125
100
AcDbArc
 50
0.0
 51
55.00000000000018
  0
LINE
  5
330
330
1F
100
AcDbEntity
  8
0
  6
Continuous
 62
     7
370
     5
100
AcDbLine
 10
2.288472943830232
 20
3.351272238464258
 30
0.0
 11
2.304097969995263
 21
3.36689726462929
 31
0.0
  0
LINE
  5
331
330
1F
100
AcDbEntity
  8
0
  6
Continuous
 62
     7
370
     5
100
AcDbLine
 10
2.304097969995263
 20
3.398147243626866
 30
0.0
 11
2.288472943830232
 21
3.413772269791897
 31
0.0
  0
LINE
  5
332
330
1F
100
AcDbEntity
  8
0
  6
Continuous
 62
     7
370
     5
100
AcDbLine
 10
2.288472943830232
 20
3.413772269791897
 30
0.0
 11
2.304097969995263
 21
3.429397222624441
 31
0.0
  0
LINE
  5
333
330
1F
100
AcDbEntity
  8
0
  6
Continuous
 62
     7
370
     5
100
AcDbLine
 10
2.304097969995263
 20
3.429397222624441
 30
0.0
 11
2.288472943830232
 21
3.445022248789473
 31
0.0
  0
LINE
  5
334
330
1F
100
AcDbEntity
  8
0
  6
Continuous
 62
     7
370
     5
100
AcDbLine
 10
2.288472943830232
 20
3.445022248789473
 30
0.0
 11
2.304097969995263
 21
3.46064723828826
 31
0.0
  0
LINE
  5
335
330
1F
100
AcDbEntity
  8
0
  6
Continuous
 62
     7
370
     5
100
AcDbLine
 10
2.304097969995263
 20
3.46064723828826
 30
0.0
 11
2.288472943830232
 21
3.476272227787049
 31
0.0
  0
LINE
  5
336
330
1F
100
AcDbEntity
  8
0
  6
Continuous
 62
     7
370
     5
100
AcDbLine
 10
2.288472943830232
 20
3.226272249141469
 30
0.0
 11
2.304097969995263
 21
3.241897201974013
 31
0.0
  0
LINE
  5
337
330
1F
100
AcDbEntity
  8
0
  6
Continuous
 62
     7
370
     5
100
AcDbLine
 10
2.304097969995263
 20
3.241897201974013
 30
0.0
 11
2.288472943830232
 21
3.257522228139044
 31
0.0
  0
LINE
  5
338
330
1F
100
AcDbEntity
  8
0
  6
Continuous
 62
     7
370
     5
100
AcDbLine
 10
2.288472943830232
 20
3.257522228139044
 30
0.0
 11
2.304097969995263
 21
3.273147254304075
 31
0.0
  0
LINE
  5
339
330
1F
100
AcDbEntity
  8
0
  6
Continuous
 62
     7
370
     5
100
AcDbLine
 10
2.304097969995263
 20
3.273147254304075
 30
0.0
 11
2.288472943830232
 21
3.28877220713662
 31
0.0
  0
LINE
  5
33A
330
1F
100
AcDbEntity
  8
0
  6
Continuous
 62
     7
370
     5
100
AcDbLine
 10
2.288472943830232
 20
3.28877220713662
 30
0.0
 11
2.304097969995263
 21
3.304397233301652
 31
0.0
  0
LINE
  5
33B
330
1F
100
AcDbEntity
  8
0
  6
Continuous
 62
     7
370
     5
100
AcDbLine
 10
2.304097969995263
 20
3.304397233301652
 30
0.0
 11
2.288472943830232
 21
3.320022259466683
 31
0.0
  0
LINE
  5
33C
330
1F
100
AcDbEntity
  8
0
  6
Continuous
 62
     7
370
     5
100
AcDbLine
 10
2.288472943830232
 20
3.320022259466683
 30
0.0
 11
2.304097969995263
 21
3.335647212299227
 31
0.0
  0
LINE
  5
33D
330
1F
100
AcDbEntity
  8
0
  6
Continuous
 62
     7
370
     5
100
AcDbLine
 10
2.304097969995263
 20
3.335647212299227
 30
0.0
 11
2.288472943830232
 21
3.351272238464258
 31
0.0
  0
LINE
  5
33E
330
1F
100
AcDbEntity
  8
0
  6
Continuous
 62
     7
370
     5
100
AcDbLine
 10
2.304097969995263
 20
3.36689726462929
 30
0.0
 11
2.288472943830232
 21
3.382522217461835
 31
0.0
  0
LINE
  5
33F
330
1F
100
AcDbEntity
  8
0
  6
Continuous
 62
     7
370
     5
100
AcDbLine
 10
2.288472943830232
 20
3.382522217461835
 30
0.0
 11
2.304097969995263
 21
3.398147243626866
 31
0.0
  0
LINE
  5
340
330
1F
100
AcDbEntity
  8
0
  6
Continuous
 62
     7
370
     5
100
AcDbLine
 10
2.288472943830232
 20
3.476272227787049
 30
0.0
 11
2.304097969995263
 21
3.491897217285837
 31
0.0
  0
LINE
  5
341
330
1F
100
AcDbEntity
  8
0
  6
Continuous
 62
     7
370
     5
100
AcDbLine
 10
2.304097969995263
 20
3.491897217285837
 30
0.0
 11
2.288472943830232
 21
3.507522243450868
 31
0.0
  0
LINE
  5
342
330
1F
100
AcDbEntity
  8
0
  6
Continuous
 62
     7
370
     5
100
AcDbLine
 10
2.288472943830232
 20
3.507522243450868
 30
0.0
 11
2.304097969995263
 21
3.523147232949656
 31
0.0
  0
LINE
  5
343
330
1F
100
AcDbEntity
  8
0
  6
Continuous
 62
     7
370
     5
100
AcDbLine
 10
2.35097297515787
 20
3.066200264973356
 30
0.0
 11
2.292294959677979
 21
3.066200264973356
 31
0.0
  0
LINE
  5
344
330
1F
100
AcDbEntity
  8
0
  6
Continuous
 62
     7
370
     5
100
AcDbLine
 10
1.725972955211434
 20
3.917762760984068
 30
0.0
 11
1.663472997216282
 21
3.917762760984068
 31
0.0
  0
LINE
  5
345
330
1F
100
AcDbEntity
  8
0
  6
Continuous
 62
     7
370
     5
100
AcDbLine
 10
2.578657291595884
 20
3.833233009145642
 30
0.0
 11
2.811910477035182
 21
3.833233009145642
 31
0.0
  0
LINE
  5
346
330
1F
100
AcDbEntity
  8
0
  6
Continuous
 62
     7
370
     5
100
AcDbLine
 10
2.5115583600618
 20
3.833233009145642
 30
0.0
 11
2.578657291595884
 21
3.833233009145642
 31
0.0
  0
HATCH
  5
347
330
1F
100
AcDbEntity
  8
0
  6
Continuous
 62
     7
370
     5
100
AcDbHatch
 10
0.0
 20
0.0
 30
0.0
210
0.0
220
0.0
230
1.0
  2
STEEL
 70
     0
 71
     0
 91
        1
 92
        0
 93
        6
 72
     1
 10
2.038472959693449
 20
4.030733007977025
 11
2.066347959693448
 21
4.030733007977025
 72
     1
 10
2.066347959693448
 20
4.030733007977025
 11
2.066347959693448
 21
4.117134424942871
 72
     1
 10
2.066347959693448
 20
4.117134424942871
 11
2.020347959693448
 21
4.155733007977025
 72
     1
 10
2.020347959693448
 20
4.155733007977025
 11
1.944722959693448
 21
4.155733007977025
 72
     1
 10
1.944722959693448
 20
4.155733007977025
 11
1.944722959693448
 21
4.124483007977025
 72
     1
 10
1.944722959693448
 20
4.124483007977025
 11
2.038472959693449
 21
4.030733007977025
 97
        0
 75
     0
 76
     1
 52
0.0
 41
0.5
 77
     0
 78
     2
 53
45.0
 43
0.0
 44
0.0
 45
-0.0441941738241592
 46
0.0441941738241592
 79
     0
 53
45.0
 43
0.0
 44
0.03125
 45
-0.0441941738241592
 46
0.0441941738241592
 79
     0
 98
        1
 10
0.0
 20
0.0
  0
HATCH
  5
348
330
1F
100
AcDbEntity
  8
0
  6
Continuous
 62
     7
370
     5
100
AcDbHatch
 10
0.0
 20
0.0
 30
0.0
210
0.0
220
0.0
230
1.0
  2
STEEL
 70
     0
 71
     0
 91
        1
 92
        0
 93
       14
 72
     1
 10
4.507222959693448
 20
4.124483007977025
 11
4.507222959693448
 21
4.155733007977025
 72
     1
 10
4.507222959693448
 20
4.155733007977025
 11
2.212847959693448
 21
4.155733007977025
 72
     1
 10
2.212847959693448
 20
4.155733007977025
 11
2.166847959693448
 21
4.117134424942871
 72
     1
 10
2.166847959693448
 20
4.117134424942871
 11
2.166847959693448
 21
4.030733007977025
 72
     1
 10
2.166847959693448
 20
4.030733007977025
 11
2.975972959693448
 21
4.030733007977025
 72
     1
 10
2.975972959693448
 20
4.030733007977025
 11
2.979248445898639
 21
3.968233007977025
 72
     1
 10
2.979248445898639
 20
3.968233007977025
 11
3.035197473488258
 21
3.968233007977025
 72
     1
 10
3.035197473488258
 20
3.968233007977025
 11
3.038472959693449
 21
4.030733007977025
 72
     1
 10
3.038472959693449
 20
4.030733007977025
 11
3.413472959693448
 21
4.030733007977025
 72
     1
 10
3.413472959693448
 20
4.030733007977025
 11
3.416748445898639
 21
3.968233007977025
 72
     1
 10
3.416748445898639
 20
3.968233007977025
 11
4.00722295969345
 21
3.968233007977025
 72
     1
 10
4.00722295969345
 20
3.968233007977025
 11
4.06972295969345
 21
4.030733007977025
 72
     1
 10
4.06972295969345
 20
4.030733007977025
 11
4.413472959693448
 21
4.030733007977025
 72
     1
 10
4.413472959693448
 20
4.030733007977025
 11
4.507222959693448
 21
4.124483007977025
 97
        0
 75
     0
 76
     1
 52
0.0
 41
0.5
 77
     0
 78
     2
 53
45.0
 43
0.0
 44
0.0
 45
-0.0441941738241592
 46
0.0441941738241592
 79
     0
 53
45.0
 43
0.0
 44
0.03125
 45
-0.0441941738241592
 46
0.0441941738241592
 79
     0
 98
        1
 10
0.0
 20
0.0
  0
HATCH
  5
349
330
1F
100
AcDbEntity
  8
0
  6
Continuous
 62
     7
370
     5
100
AcDbHatch
 10
0.0
 20
0.0
 30
0.0
210
0.0
220
0.0
230
1.0
  2
ANSI32
 70
     0
 71
     0
 91
        1
 92
        0
 93
        5
 72
     1
 10
4.147847959693448
 20
3.843233007977025
 11
4.253847959693448
 21
3.843233007977025
 72
     1
 10
4.253847959693448
 20
3.843233007977025
 11
4.253847959693448
 21
3.99213442494287
 72
     1
 10
4.253847959693448
 20
3.99213442494287
 11
4.207847959693448
 21
4.030733007977025
 72
     1
 10
4.207847959693448
 20
4.030733007977025
 11
4.147847959693448
 21
4.030733007977025
 72
     1
 10
4.147847959693448
 20
4.030733007977025
 11
4.147847959693448
 21
3.843233007977025
 97
        0
 75
     0
 76
     1
 52
90.00000000000019
 41
0.125
 77
     0
 78
     2
 53
135.0000000000002
 43
0.0
 44
0.0
 45
-0.0331456303681193
 46
-0.0331456303681195
 79
     0
 53
135.0000000000002
 43
-0.0000000000000001
 44
0.022097086875
 45
-0.0331456303681193
 46
-0.0331456303681195
 79
     0
 98
        1
 10
0.0
 20
0.0
  0
HATCH
  5
34A
330
1F
100
AcDbEntity
  8
0
  6
Continuous
 62
     7
370
     5
100
AcDbHatch
 10
0.0
 20
0.0
 30
0.0
210
0.0
220
0.0
230
1.0
  2
ANSI32
 70
     0
 71
     0
 91
        1
 92
        0
 93
        4
 72
     1
 10
2.153972959693449
 20
3.843233007977025
 11
2.241597959693449
 21
3.843233007977025
 72
     1
 10
2.241597959693449
 20
3.843233007977025
 11
2.241597959693449
 21
4.030733007977025
 72
     1
 10
2.241597959693449
 20
4.030733007977025
 11
2.153972959693449
 21
4.030733007977025
 72
     1
 10
2.153972959693449
 20
4.030733007977025
 11
2.153972959693449
 21
3.843233007977025
 97
        0
 75
     0
 76
     1
 52
90.00000000000019
 41
0.125
 77
     0
 78
     2
 53
135.0000000000002
 43
0.0
 44
0.0
 45
-0.0331456303681193
 46
-0.0331456303681195
 79
     0
 53
135.0000000000002
 43
-0.0000000000000001
 44
0.022097086875
 45
-0.0331456303681193
 46
-0.0331456303681195
 79
     0
 98
        1
 10
0.0
 20
0.0
  0
HATCH
  5
34B
330
1F
100
AcDbEntity
  8
0
  6
Continuous
 62
     7
370
     5
100
AcDbHatch
 10
0.0
 20
0.0
 30
0.0
210
0.0
220
0.0
230
1.0
  2
ANSI32
 70
     0
 71
     0
 91
        1
 92
        0
 93
       10
 72
     2
 10
1.897847959693449
 20
3.851538013752051
 40
0.1249999999999998
 50
305.0000000000003
 51
360.0000000000008
 73
     0
 72
     1
 10
2.022847959693449
 20
3.851538013752051
 11
2.022847959693449
 21
3.843233007977025
 72
     1
 10
2.022847959693449
 20
3.843233007977025
 11
2.079222959693449
 21
3.843233007977025
 72
     1
 10
2.079222959693449
 20
3.843233007977025
 11
2.079222959693449
 21
4.030733007977025
 72
     1
 10
2.079222959693449
 20
4.030733007977025
 11
2.022847959693449
 21
4.030733007977025
 72
     1
 10
2.022847959693449
 20
4.030733007977025
 11
1.929097959693448
 21
4.124483007977025
 72
     1
 10
1.929097959693448
 20
4.124483007977025
 11
1.929097959693448
 21
4.155733007977025
 72
     1
 10
1.929097959693448
 20
4.155733007977025
 11
1.725972959693448
 21
4.155733007977025
 72
     1
 10
1.725972959693448
 20
4.155733007977025
 11
1.725972959693448
 21
4.124483007977025
 72
     1
 10
1.725972959693448
 20
4.124483007977025
 11
1.969545014237329
 21
3.953932019288176
 97
        0
 75
     0
 76
     1
 52
90.00000000000019
 41
0.125
 77
     0
 78
     2
 53
135.0000000000002
 43
0.0
 44
0.0
 45
-0.0331456303681193
 46
-0.0331456303681195
 79
     0
 53
135.0000000000002
 43
-0.0000000000000001
 44
0.022097086875
 45
-0.0331456303681193
 46
-0.0331456303681195
 79
     0
 98
        1
 10
0.0
 20
0.0
  0
HATCH
  5
34C
330
1F
100
AcDbEntity
  8
0
  6
Continuous
 62
     7
370
     5
100
AcDbHatch
 10
0.0
 20
0.0
 30
0.0
210
0.0
220
0.0
230
1.0
  2
ANSI32
 70
     0
 71
     0
 91
        1
 92
        0
 93
       11
 72
     2
 10
4.554097959693449
 20
3.851538013752051
 40
0.1249999999999998
 50
180.0
 51
235.0000000000012
 73
     0
 72
     1
 10
4.482400905149569
 20
3.953932019288176
 11
4.725972959693449
 21
4.124483007977025
 72
     1
 10
4.725972959693449
 20
4.124483007977025
 11
4.725972959693449
 21
4.155733007977025
 72
     1
 10
4.725972959693449
 20
4.155733007977025
 11
4.522847959693449
 21
4.155733007977025
 72
     1
 10
4.522847959693449
 20
4.155733007977025
 11
4.522847959693449
 21
4.124483007977025
 72
     1
 10
4.522847959693449
 20
4.124483007977025
 11
4.429097959693449
 21
4.030733007977025
 72
     1
 10
4.429097959693449
 20
4.030733007977025
 11
4.400347959693449
 21
4.030733007977025
 72
     1
 10
4.400347959693449
 20
4.030733007977025
 11
4.354347959693448
 21
3.99213442494287
 72
     1
 10
4.354347959693448
 20
3.99213442494287
 11
4.354347959693448
 21
3.843233007977025
 72
     1
 10
4.354347959693448
 20
3.843233007977025
 11
4.429097959693449
 21
3.843233007977025
 72
     1
 10
4.429097959693449
 20
3.843233007977025
 11
4.429097959693449
 21
3.851538013752051
 97
        0
 75
     0
 76
     1
 52
90.00000000000019
 41
0.125
 77
     0
 78
     2
 53
135.0000000000002
 43
0.0
 44
0.0
 45
-0.0331456303681193
 46
-0.0331456303681195
 79
     0
 53
135.0000000000002
 43
-0.0000000000000001
 44
0.022097086875
 45
-0.0331456303681193
 46
-0.0331456303681195
 79
     0
 98
        1
 10
0.0
 20
0.0
  0
HATCH
  5
34D
330
1F
100
AcDbEntity
  8
0
  6
Continuous
 62
     7
370
     5
100
AcDbHatch
 10
0.0
 20
0.0
 30
0.0
210
0.0
220
0.0
230
1.0
  2
ANSI33
 70
     0
 71
     0
 91
        1
 92
        0
 93
       49
 72
     1
 10
1.663472959693449
 20
3.91776276184963
 11
1.725972959693451
 21
3.91776276184963
 72
     2
 10
1.725972959693451
 20
3.76151276184963
 40
0.15625
 50
270.0000000000008
 51
344.5099088441495
 73
     0
 72
     2
 10
1.9970070190599
 20
3.836626683084938
 40
0.1250000000000002
 50
195.4900911558523
 51
255.0000000000007
 73
     1
 72
     1
 10
1.964654638422085
 20
3.715885954798805
 11
2.293121731899949
 21
3.627873462361211
 72
     1
 10
2.293121731899949
 20
3.627873462361211
 11
2.304097959693449
 21
3.616897234567712
 72
     1
 10
2.304097959693449
 20
3.616897234567712
 11
2.288472959693449
 21
3.601272234567712
 72
     1
 10
2.288472959693449
 20
3.601272234567712
 11
2.304097959693448
 21
3.585647234567712
 72
     1
 10
2.304097959693448
 20
3.585647234567712
 11
2.288472959693449
 21
3.570022234567712
 72
     1
 10
2.288472959693449
 20
3.570022234567712
 11
2.304097959693448
 21
3.554397234567712
 72
     1
 10
2.304097959693448
 20
3.554397234567712
 11
2.288472959693448
 21
3.538772234567712
 72
     1
 10
2.288472959693448
 20
3.538772234567712
 11
2.304097959693448
 21
3.523147234567712
 72
     1
 10
2.304097959693448
 20
3.523147234567712
 11
2.288472959693448
 21
3.507522234567711
 72
     1
 10
2.288472959693448
 20
3.507522234567711
 11
2.304097959693448
 21
3.491897234567711
 72
     1
 10
2.304097959693448
 20
3.491897234567711
 11
2.288472959693448
 21
3.476272234567712
 72
     1
 10
2.288472959693448
 20
3.476272234567712
 11
2.304097959693448
 21
3.460647234567711
 72
     1
 10
2.304097959693448
 20
3.460647234567711
 11
2.288472959693448
 21
3.445022234567712
 72
     1
 10
2.288472959693448
 20
3.445022234567712
 11
2.304097959693448
 21
3.429397234567712
 72
     1
 10
2.304097959693448
 20
3.429397234567712
 11
2.288472959693448
 21
3.413772234567711
 72
     1
 10
2.288472959693448
 20
3.413772234567711
 11
2.304097959693448
 21
3.398147234567712
 72
     1
 10
2.304097959693448
 20
3.398147234567712
 11
2.288472959693448
 21
3.382522234567712
 72
     1
 10
2.288472959693448
 20
3.382522234567712
 11
2.304097959693448
 21
3.366897234567711
 72
     1
 10
2.304097959693448
 20
3.366897234567711
 11
2.288472959693448
 21
3.351272234567712
 72
     1
 10
2.288472959693448
 20
3.351272234567712
 11
2.304097959693447
 21
3.335647234567712
 72
     1
 10
2.304097959693447
 20
3.335647234567712
 11
2.288472959693447
 21
3.320022234567712
 72
     1
 10
2.288472959693447
 20
3.320022234567712
 11
2.304097959693447
 21
3.304397234567712
 72
     1
 10
2.304097959693447
 20
3.304397234567712
 11
2.288472959693447
 21
3.288772234567712
 72
     1
 10
2.288472959693447
 20
3.288772234567712
 11
2.304097959693447
 21
3.273147234567711
 72
     1
 10
2.304097959693447
 20
3.273147234567711
 11
2.288472959693447
 21
3.257522234567712
 72
     1
 10
2.288472959693447
 20
3.257522234567712
 11
2.304097959693447
 21
3.241897234567711
 72
     1
 10
2.304097959693447
 20
3.241897234567711
 11
2.288472959693447
 21
3.226272234567712
 72
     1
 10
2.288472959693447
 20
3.226272234567712
 11
2.304097959693447
 21
3.210647234567712
 72
     1
 10
2.304097959693447
 20
3.210647234567712
 11
2.288472959693447
 21
3.195022234567712
 72
     1
 10
2.288472959693447
 20
3.195022234567712
 11
2.304097959693447
 21
3.179397234567712
 72
     1
 10
2.304097959693447
 20
3.179397234567712
 11
2.288472959693446
 21
3.163772234567712
 72
     1
 10
2.288472959693446
 20
3.163772234567712
 11
2.304097959693447
 21
3.148147234567711
 72
     1
 10
2.304097959693447
 20
3.148147234567711
 11
2.288472959693446
 21
3.132522234567712
 72
     1
 10
2.288472959693446
 20
3.132522234567712
 11
2.304097959693446
 21
3.116897234567712
 72
     1
 10
2.304097959693446
 20
3.116897234567712
 11
2.288472959693446
 21
3.101272234567712
 72
     1
 10
2.288472959693446
 20
3.101272234567712
 11
2.304097959693446
 21
3.085647234567712
 72
     1
 10
2.304097959693446
 20
3.085647234567712
 11
2.288472959693446
 21
3.070022234567712
 72
     1
 10
2.288472959693446
 20
3.070022234567712
 11
2.292294932411532
 21
3.06620026184963
 72
     1
 10
2.292294932411532
 20
3.06620026184963
 11
2.350972959693448
 21
3.06620026184963
 72
     1
 10
2.350972959693448
 20
3.06620026184963
 11
2.350972959693449
 21
3.685165129027878
 72
     1
 10
2.350972959693449
 20
3.685165129027878
 11
2.053546769374541
 21
3.764860236531696
 72
     2
 10
2.069722959693449
 20
3.825230600674763
 40
0.0625
 50
104.9999999999999
 51
180.0
 73
     0
 72
     1
 10
2.007222959693449
 20
3.825230600674763
 11
2.007222959693449
 21
3.861995539271076
 72
     2
 10
1.882222959693449
 20
3.861995539271076
 40
0.125
 50
0.0
 51
55.00000000000019
 73
     1
 72
     1
 10
1.953920014237329
 20
3.9643895448072
 11
1.663472959693448
 21
4.16776276184963
 72
     1
 10
1.663472959693448
 20
4.16776276184963
 11
1.663472959693449
 21
3.91776276184963
 97
        0
 75
     0
 76
     1
 52
0.0
 41
0.25
 77
     0
 78
     2
 53
45.0
 43
0.0
 44
0.0
 45
-0.0441941738241592
 46
0.0441941738241592
 79
     0
 53
45.0
 43
0.04419417375
 44
0.0
 45
-0.0441941738241592
 46
0.0441941738241592
 79
     2
 49
0.03125
 49
-0.015625
 98
        1
 10
0.0
 20
0.0
  0
HATCH
  5
34E
330
1F
100
AcDbEntity
  8
0
  6
Continuous
 62
     7
370
     5
100
AcDbHatch
 10
0.0
 20
0.0
 30
0.0
210
0.0
220
0.0
230
1.0
  2
ANSI33
 70
     0
 71
     0
 91
        1
 92
        0
 93
       55
 72
     1
 10
4.788472959693449
 20
4.16776276184963
 11
4.498025905149569
 21
3.9643895448072
 72
     2
 10
4.569722959693449
 20
3.861995539271076
 40
0.125
 50
124.9999999999997
 51
180.0
 73
     1
 72
     1
 10
4.444722959693449
 20
3.861995539271076
 11
4.444722959693449
 21
3.833233007977025
 72
     1
 10
4.444722959693449
 20
3.833233007977025
 11
4.338097959693449
 21
3.833233007977025
 72
     1
 10
4.338097959693449
 20
3.833233007977025
 11
4.338097959693449
 21
3.708233007977025
 72
     1
 10
4.338097959693449
 20
3.708233007977025
 11
4.304097959693449
 21
3.687803746930088
 72
     1
 10
4.304097959693449
 20
3.687803746930088
 11
4.270097959693448
 21
3.708233007977025
 72
     1
 10
4.270097959693448
 20
3.708233007977025
 11
4.270097959693448
 21
3.833233007977025
 72
     1
 10
4.270097959693448
 20
3.833233007977025
 11
4.179097959693448
 21
3.833233007977025
 72
     1
 10
4.179097959693448
 20
3.833233007977025
 11
4.179097959693448
 21
3.70609865968656
 72
     1
 10
4.179097959693448
 20
3.70609865968656
 11
4.100972959693449
 21
3.685165129027878
 72
     1
 10
4.100972959693449
 20
3.685165129027878
 11
4.100972959693449
 21
3.06620026184963
 72
     1
 10
4.100972959693449
 20
3.06620026184963
 11
4.159650986975365
 21
3.06620026184963
 72
     1
 10
4.159650986975365
 20
3.06620026184963
 11
4.163472959693451
 21
3.070022234567712
 72
     1
 10
4.163472959693451
 20
3.070022234567712
 11
4.147847959693452
 21
3.085647234567712
 72
     1
 10
4.147847959693452
 20
3.085647234567712
 11
4.163472959693451
 21
3.101272234567712
 72
     1
 10
4.163472959693451
 20
3.101272234567712
 11
4.147847959693452
 21
3.116897234567712
 72
     1
 10
4.147847959693452
 20
3.116897234567712
 11
4.163472959693451
 21
3.132522234567712
 72
     1
 10
4.163472959693451
 20
3.132522234567712
 11
4.147847959693451
 21
3.148147234567711
 72
     1
 10
4.147847959693451
 20
3.148147234567711
 11
4.163472959693451
 21
3.163772234567712
 72
     1
 10
4.163472959693451
 20
3.163772234567712
 11
4.147847959693451
 21
3.179397234567712
 72
     1
 10
4.147847959693451
 20
3.179397234567712
 11
4.163472959693451
 21
3.195022234567712
 72
     1
 10
4.163472959693451
 20
3.195022234567712
 11
4.147847959693451
 21
3.210647234567712
 72
     1
 10
4.147847959693451
 20
3.210647234567712
 11
4.163472959693451
 21
3.226272234567712
 72
     1
 10
4.163472959693451
 20
3.226272234567712
 11
4.14784795969345
 21
3.241897234567711
 72
     1
 10
4.14784795969345
 20
3.241897234567711
 11
4.163472959693451
 21
3.257522234567712
 72
     1
 10
4.163472959693451
 20
3.257522234567712
 11
4.14784795969345
 21
3.273147234567711
 72
     1
 10
4.14784795969345
 20
3.273147234567711
 11
4.163472959693451
 21
3.288772234567712
 72
     1
 10
4.163472959693451
 20
3.288772234567712
 11
4.14784795969345
 21
3.304397234567712
 72
     1
 10
4.14784795969345
 20
3.304397234567712
 11
4.16347295969345
 21
3.320022234567712
 72
     1
 10
4.16347295969345
 20
3.320022234567712
 11
4.14784795969345
 21
3.335647234567712
 72
     1
 10
4.14784795969345
 20
3.335647234567712
 11
4.16347295969345
 21
3.351272234567712
 72
     1
 10
4.16347295969345
 20
3.351272234567712
 11
4.14784795969345
 21
3.366897234567711
 72
     1
 10
4.14784795969345
 20
3.366897234567711
 11
4.16347295969345
 21
3.382522234567712
 72
     1
 10
4.16347295969345
 20
3.382522234567712
 11
4.14784795969345
 21
3.398147234567712
 72
     1
 10
4.14784795969345
 20
3.398147234567712
 11
4.16347295969345
 21
3.413772234567711
 72
     1
 10
4.16347295969345
 20
3.413772234567711
 11
4.14784795969345
 21
3.429397234567712
 72
     1
 10
4.14784795969345
 20
3.429397234567712
 11
4.16347295969345
 21
3.445022234567712
 72
     1
 10
4.16347295969345
 20
3.445022234567712
 11
4.14784795969345
 21
3.460647234567711
 72
     1
 10
4.14784795969345
 20
3.460647234567711
 11
4.163472959693449
 21
3.476272234567712
 72
     1
 10
4.163472959693449
 20
3.476272234567712
 11
4.147847959693449
 21
3.491897234567711
 72
     1
 10
4.147847959693449
 20
3.491897234567711
 11
4.163472959693449
 21
3.507522234567711
 72
     1
 10
4.163472959693449
 20
3.507522234567711
 11
4.147847959693449
 21
3.523147234567712
 72
     1
 10
4.147847959693449
 20
3.523147234567712
 11
4.163472959693449
 21
3.538772234567712
 72
     1
 10
4.163472959693449
 20
3.538772234567712
 11
4.147847959693449
 21
3.554397234567712
 72
     1
 10
4.147847959693449
 20
3.554397234567712
 11
4.163472959693449
 21
3.570022234567712
 72
     1
 10
4.163472959693449
 20
3.570022234567712
 11
4.147847959693449
 21
3.585647234567712
 72
     1
 10
4.147847959693449
 20
3.585647234567712
 11
4.163472959693449
 21
3.601272234567712
 72
     1
 10
4.163472959693449
 20
3.601272234567712
 11
4.147847959693449
 21
3.616897234567712
 72
     1
 10
4.147847959693449
 20
3.616897234567712
 11
4.158824187486949
 21
3.627873462361211
 72
     1
 10
4.158824187486949
 20
3.627873462361211
 11
4.487291280964813
 21
3.715885954798805
 72
     2
 10
4.454938900326998
 20
3.836626683084938
 40
0.1250000000000002
 50
285.0000000000008
 51
344.5099088441494
 73
     1
 72
     2
 10
4.725972959693447
 20
3.76151276184963
 40
0.15625
 50
195.4900911558521
 51
270.0000000000008
 73
     0
 72
     1
 10
4.725972959693447
 20
3.91776276184963
 11
4.788472959693449
 21
3.91776276184963
 72
     1
 10
4.788472959693449
 20
3.91776276184963
 11
4.788472959693449
 21
4.16776276184963
 97
        0
 75
     0
 76
     1
 52
0.0
 41
0.25
 77
     0
 78
     2
 53
45.0
 43
0.0
 44
0.0
 45
-0.0441941738241592
 46
0.0441941738241592
 79
     0
 53
45.0
 43
0.04419417375
 44
0.0
 45
-0.0441941738241592
 46
0.0441941738241592
 79
     2
 49
0.03125
 49
-0.015625
 98
        1
 10
0.0
 20
0.0
  0
ENDSEC
  0
SECTION
  2
OBJECTS
  0
DICTIONARY
  5
C
330
0
100
AcDbDictionary
281
     1
  3
ACAD_COLOR
350
71D
  3
ACAD_GROUP
350
D
  3
ACAD_LAYOUT
350
1A
  3
ACAD_MATERIAL
350
704
  3
ACAD_MLEADERSTYLE
350
702
  3
ACAD_MLINESTYLE
350
17
  3
ACAD_PLOTSETTINGS
350
19
  3
ACAD_PLOTSTYLENAME
350
E
  3
ACAD_SCALELIST
350
3B
  3
ACAD_TABLESTYLE
350
701
  3
ACAD_VISUALSTYLE
350
2A
  3
ACDB_RECOMPOSE_DATA
350
72E
  3
AcDbVariableDictionary
350
6FF
  3
DWGPROPS
350
72F
  0
DICTIONARY
  5
723
330
10
100
AcDbDictionary
280
     1
281
     1
  3
ADSK_XREC_LAYER_RECONCILED
360
724
  0
DICTIONARY
  5
725
330
62
100
AcDbDictionary
280
     1
281
     1
  3
ADSK_XREC_LAYER_RECONCILED
360
726
  0
DICTIONARY
  5
71D
102
{ACAD_REACTORS
330
C
102
}
330
C
100
AcDbDictionary
281
     1
  0
DICTIONARY
  5
D
102
{ACAD_REACTORS
330
C
102
}
330
C
100
AcDbDictionary
281
     1
  0
DICTIONARY
  5
1A
102
{ACAD_REACTORS
330
C
102
}
330
C
100
AcDbDictionary
281
     1
  3
Layout1
350
1E
  3
Layout2
350
26
  3
Model
350
22
  0
DICTIONARY
  5
704
102
{ACAD_REACTORS
330
C
102
}
330
C
100
AcDbDictionary
281
     1
  3
ByBlock
350
70D
  3
ByLayer
350
705
  3
Global
350
715
  0
DICTIONARY
  5
702
102
{ACAD_REACTORS
330
C
102
}
330
C
100
AcDbDictionary
281
     1
  3
Standard
350
71F
  0
DICTIONARY
  5
17
102
{ACAD_REACTORS
330
C
102
}
330
C
100
AcDbDictionary
281
     1
  3
Standard
350
18
  0
DICTIONARY
  5
19
102
{ACAD_REACTORS
330
C
102
}
330
C
100
AcDbDictionary
281
     1
  0
ACDBDICTIONARYWDFLT
  5
E
102
{ACAD_REACTORS
330
C
102
}
330
C
100
AcDbDictionary
281
     1
  3
Normal
350
F
100
AcDbDictionaryWithDefault
340
F
  0
DICTIONARY
  5
3B
102
{ACAD_REACTORS
330
C
102
}
330
C
100
AcDbDictionary
281
     1
  3
A0
350
3C
  3
A1
350
3D
  3
A2
350
3E
  3
A3
350
3F
  3
A4
350
40
  3
A5
350
41
  3
A6
350
42
  3
A7
350
43
  3
A8
350
44
  3
A9
350
45
  3
B0
350
46
  3
B1
350
47
  3
B2
350
48
  3
B3
350
49
  3
B4
350
4A
  3
B5
350
4B
  3
B6
350
4C
  3
B7
350
4D
  3
B8
350
4E
  3
B9
350
4F
  3
C0
350
50
  3
C1
350
51
  3
C2
350
52
  3
C3
350
53
  3
C4
350
54
  3
C5
350
55
  3
C6
350
56
  3
C7
350
57
  3
C8
350
58
  3
C9
350
59
  3
D0
350
5A
  3
D1
350
5B
  3
D2
350
5C
  0
DICTIONARY
  5
701
102
{ACAD_REACTORS
330
C
102
}
330
C
100
AcDbDictionary
281
     1
  3
Standard
350
71E
  0
DICTIONARY
  5
2A
102
{ACAD_REACTORS
330
C
102
}
330
C
100
AcDbDictionary
281
     1
  3
2dWireframe
350
2F
  3
3D Hidden
350
31
  3
3dWireframe
350
30
  3
Basic
350
32
  3
Brighten
350
36
  3
ColorChange
350
3A
  3
Conceptual
350
34
  3
Dim
350
35
  3
Facepattern
350
39
  3
Flat
350
2B
  3
FlatWithEdges
350
2C
  3
Gouraud
350
2D
  3
GouraudWithEdges
350
2E
  3
Linepattern
350
38
  3
Realistic
350
33
  3
Thicken
350
37
  0
XRECORD
  5
72E
102
{ACAD_REACTORS
330
C
102
}
330
C
100
AcDbXrecord
280
     1
 90
        1
330
71E
  0
DICTIONARY
  5
6FF
102
{ACAD_REACTORS
330
C
102
}
330
C
100
AcDbDictionary
281
     1
  3
CANNOSCALE
350
700
  3
CMLEADERSTYLE
350
728
  3
CTABLESTYLE
350
727
  3
DIMASSOC
350
72B
  3
INDEXCTL
350
72A
  3
SORTENTS
350
729
  0
XRECORD
  5
72F
102
{ACAD_REACTORS
330
C
102
}
330
C
100
AcDbXrecord
280
     1
  1
DWGPROPS COOKIE
  2

  3

  4

  6

  7

  8
Jason Jacobs
  9

300
=
301
=
302
=
303
=
304
=
305
=
306
=
307
=
308
=
309
=
 40
0.0015836689814815
 41
2455391.587438148
 42
2455391.589830544
  1

 90
        0
  0
XRECORD
  5
724
102
{ACAD_REACTORS
330
723
102
}
330
723
100
AcDbXrecord
280
     1
290
     1
  0
XRECORD
  5
726
102
{ACAD_REACTORS
330
725
102
}
330
725
100
AcDbXrecord
280
     1
290
     1
  0
LAYOUT
  5
1E
102
{ACAD_XDICTIONARY
360
730
102
}
102
{ACAD_REACTORS
330
1A
102
}
330
1A
100
AcDbPlotSettings
  1

  2
none_device
  4

  6

 40
0.0
 41
0.0
 42
0.0
 43
0.0
 44
0.0
 45
0.0
 46
0.0
 47
0.0
 48
0.0
 49
0.0
140
0.0
141
0.0
142
1.0
143
1.0
 70
   688
 72
     0
 73
     0
 74
     5
  7

 75
    16
147
1.0
148
0.0
149
0.0
100
AcDbLayout
  1
Layout1
 70
     1
 71
     1
 10
0.0
 20
0.0
 11
12.0
 21
9.0
 12
0.0
 22
0.0
 32
0.0
 14
1.000000000000000E+20
 24
1.000000000000000E+20
 34
1.000000000000000E+20
 15
-1.000000000000000E+20
 25
-1.000000000000000E+20
 35
-1.000000000000000E+20
146
0.0
 13
0.0
 23
0.0
 33
0.0
 16
1.0
 26
0.0
 36
0.0
 17
0.0
 27
1.0
 37
0.0
 76
     0
330
1B
  0
LAYOUT
  5
26
102
{ACAD_XDICTIONARY
360
734
102
}
102
{ACAD_REACTORS
330
1A
102
}
330
1A
100
AcDbPlotSettings
  1

  2
none_device
  4

  6

 40
0.0
 41
0.0
 42
0.0
 43
0.0
 44
0.0
 45
0.0
 46
0.0
 47
0.0
 48
0.0
 49
0.0
140
0.0
141
0.0
142
1.0
143
1.0
 70
   688
 72
     0
 73
     0
 74
     5
  7

 75
    16
147
1.0
148
0.0
149
0.0
100
AcDbLayout
  1
Layout2
 70
     1
 71
     2
 10
0.0
 20
0.0
 11
0.0
 21
0.0
 12
0.0
 22
0.0
 32
0.0
 14
0.0
 24
0.0
 34
0.0
 15
0.0
 25
0.0
 35
0.0
146
0.0
 13
0.0
 23
0.0
 33
0.0
 16
1.0
 26
0.0
 36
0.0
 17
0.0
 27
1.0
 37
0.0
 76
     0
330
23
  0
LAYOUT
  5
22
102
{ACAD_XDICTIONARY
360
732
102
}
102
{ACAD_REACTORS
330
1A
102
}
330
1A
100
AcDbPlotSettings
  1

  2
none_device
  4

  6

 40
0.0
 41
0.0
 42
0.0
 43
0.0
 44
0.0
 45
0.0
 46
0.0
 47
0.0
 48
0.0
 49
0.0
140
0.0
141
0.0
142
1.0
143
1.0
 70
  1712
 72
     0
 73
     0
 74
     0
  7

 75
     0
147
1.0
148
0.0
149
0.0
100
AcDbLayout
  1
Model
 70
     1
 71
     0
 10
0.0
 20
0.0
 11
8.5
 21
11.0
 12
0.0
 22
0.0
 32
0.0
 14
0.0
 24
0.0
 34
0.0
 15
8.5
 25
11.0
 35
0.0
146
0.0
 13
0.0
 23
0.0
 33
0.0
 16
1.0
 26
0.0
 36
0.0
 17
0.0
 27
1.0
 37
0.0
 76
     0
330
1F
331
29
  0
MATERIAL
  5
70D
102
{ACAD_XDICTIONARY
360
70E
102
}
102
{ACAD_REACTORS
330
704
102
}
330
704
100
AcDbMaterial
  1
ByBlock
 72
     0
 43
0.0208333333333333
 43
0.0
 43
0.0
 43
0.0
 43
0.0
 43
0.0208333333333333
 43
0.0
 43
0.0
 43
0.0
 43
0.0
 43
1.0
 43
0.0
 43
0.0
 43
0.0
 43
0.0
 43
1.0
 77
     0
 47
0.0208333333333333
 47
0.0
 47
0.0
 47
0.0
 47
0.0
 47
0.0208333333333333
 47
0.0
 47
0.0
 47
0.0
 47
0.0
 47
1.0
 47
0.0
 47
0.0
 47
0.0
 47
0.0
 47
1.0
171
     0
 49
0.0208333333333333
 49
0.0
 49
0.0
 49
0.0
 49
0.0
 49
0.0208333333333333
 49
0.0
 49
0.0
 49
0.0
 49
0.0
 49
1.0
 49
0.0
 49
0.0
 49
0.0
 49
0.0
 49
1.0
175
     0
142
0.0208333333333333
142
0.0
142
0.0
142
0.0
142
0.0
142
0.0208333333333333
142
0.0
142
0.0
142
0.0
142
0.0
142
1.0
142
0.0
142
0.0
142
0.0
142
0.0
142
1.0
179
     0
144
0.0208333333333333
144
0.0
144
0.0
144
0.0
144
0.0
144
0.0208333333333333
144
0.0
144
0.0
144
0.0
144
0.0
144
1.0
144
0.0
144
0.0
144
0.0
144
0.0
144
1.0
147
0.0208333333333333
147
0.0
147
0.0
147
0.0
147
0.0
147
0.0208333333333333
147
0.0
147
0.0
147
0.0
147
0.0
147
1.0
147
0.0
147
0.0
147
0.0
147
0.0
147
1.0
  0
MATERIAL
  5
705
102
{ACAD_XDICTIONARY
360
706
102
}
102
{ACAD_REACTORS
330
704
102
}
330
704
100
AcDbMaterial
  1
ByLayer
 72
     0
 43
0.0208333333333333
 43
0.0
 43
0.0
 43
0.0
 43
0.0
 43
0.0208333333333333
 43
0.0
 43
0.0
 43
0.0
 43
0.0
 43
1.0
 43
0.0
 43
0.0
 43
0.0
 43
0.0
 43
1.0
 77
     0
 47
0.0208333333333333
 47
0.0
 47
0.0
 47
0.0
 47
0.0
 47
0.0208333333333333
 47
0.0
 47
0.0
 47
0.0
 47
0.0
 47
1.0
 47
0.0
 47
0.0
 47
0.0
 47
0.0
 47
1.0
171
     0
 49
0.0208333333333333
 49
0.0
 49
0.0
 49
0.0
 49
0.0
 49
0.0208333333333333
 49
0.0
 49
0.0
 49
0.0
 49
0.0
 49
1.0
 49
0.0
 49
0.0
 49
0.0
 49
0.0
 49
1.0
175
     0
142
0.0208333333333333
142
0.0
142
0.0
142
0.0
142
0.0
142
0.0208333333333333
142
0.0
142
0.0
142
0.0
142
0.0
142
1.0
142
0.0
142
0.0
142
0.0
142
0.0
142
1.0
179
     0
144
0.0208333333333333
144
0.0
144
0.0
144
0.0
144
0.0
144
0.0208333333333333
144
0.0
144
0.0
144
0.0
144
0.0
144
1.0
144
0.0
144
0.0
144
0.0
144
0.0
144
1.0
147
0.0208333333333333
147
0.0
147
0.0
147
0.0
147
0.0
147
0.0208333333333333
147
0.0
147
0.0
147
0.0
147
0.0
147
1.0
147
0.0
147
0.0
147
0.0
147
0.0
147
1.0
  0
MATERIAL
  5
715
102
{ACAD_XDICTIONARY
360
716
102
}
102
{ACAD_REACTORS
330
704
102
}
330
704
100
AcDbMaterial
  1
Global
 72
     0
 43
0.0208333333333333
 43
0.0
 43
0.0
 43
0.0
 43
0.0
 43
0.0208333333333333
 43
0.0
 43
0.0
 43
0.0
 43
0.0
 43
1.0
 43
0.0
 43
0.0
 43
0.0
 43
0.0
 43
1.0
 77
     0
 47
0.0208333333333333
 47
0.0
 47
0.0
 47
0.0
 47
0.0
 47
0.0208333333333333
 47
0.0
 47
0.0
 47
0.0
 47
0.0
 47
1.0
 47
0.0
 47
0.0
 47
0.0
 47
0.0
 47
1.0
171
     0
 49
0.0208333333333333
 49
0.0
 49
0.0
 49
0.0
 49
0.0
 49
0.0208333333333333
 49
0.0
 49
0.0
 49
0.0
 49
0.0
 49
1.0
 49
0.0
 49
0.0
 49
0.0
 49
0.0
 49
1.0
175
     0
142
0.0208333333333333
142
0.0
142
0.0
142
0.0
142
0.0
142
0.0208333333333333
142
0.0
142
0.0
142
0.0
142
0.0
142
1.0
142
0.0
142
0.0
142
0.0
142
0.0
142
1.0
179
     0
144
0.0208333333333333
144
0.0
144
0.0
144
0.0
144
0.0
144
0.0208333333333333
144
0.0
144
0.0
144
0.0
144
0.0
144
1.0
144
0.0
144
0.0
144
0.0
144
0.0
144
1.0
147
0.0208333333333333
147
0.0
147
0.0
147
0.0
147
0.0
147
0.0208333333333333
147
0.0
147
0.0
147
0.0
147
0.0
147
1.0
147
0.0
147
0.0
147
0.0
147
0.0
147
1.0
  0
MLEADERSTYLE
  5
71F
102
{ACAD_REACTORS
330
702
102
}
330
702
100
AcDbMLeaderStyle
170
     2
171
     1
172
     0
 90
        2
 40
0.0
 41
0.0
173
     1
 91
-1056964608
340
14
 92
       -2
290
     1
 42
0.09
291
     1
 43
0.36
  3
Standard
 44
0.18
300

342
11
174
     1
178
     6
175
     1
176
     0
 93
-1056964608
 45
0.18
292
     0
297
     0
 46
0.18
 94
-1056964608
 47
1.0
 49
1.0
140
1.0
293
     1
141
0.0
294
     1
177
     0
142
1.0
295
     0
296
     0
143
0.125
1001
ACAD_MLEADERVER
1070
     2
  0
MLINESTYLE
  5
18
102
{ACAD_REACTORS
330
17
102
}
330
17
100
AcDbMlineStyle
  2
STANDARD
 70
     0
  3

 62
   256
 51
90.0
 52
90.0
 71
     2
 49
0.5
 62
   256
  6
BYLAYER
 49
-0.5
 62
   256
  6
BYLAYER
  0
ACDBPLACEHOLDER
  5
F
102
{ACAD_REACTORS
330
E
102
}
330
E
  0
SCALE
  5
3C
102
{ACAD_REACTORS
330
3B
102
}
330
3B
100
AcDbScale
 70
     0
300
1:1
140
1.0
141
1.0
290
     1
  0
SCALE
  5
3D
102
{ACAD_REACTORS
330
3B
102
}
330
3B
100
AcDbScale
 70
     0
300
1:2
140
1.0
141
2.0
290
     0
  0
SCALE
  5
3E
102
{ACAD_REACTORS
330
3B
102
}
330
3B
100
AcDbScale
 70
     0
300
1:4
140
1.0
141
4.0
290
     0
  0
SCALE
  5
3F
102
{ACAD_REACTORS
330
3B
102
}
330
3B
100
AcDbScale
 70
     0
300
1:5
140
1.0
141
5.0
290
     0
  0
SCALE
  5
40
102
{ACAD_REACTORS
330
3B
102
}
330
3B
100
AcDbScale
 70
     0
300
1:8
140
1.0
141
8.0
290
     0
  0
SCALE
  5
41
102
{ACAD_REACTORS
330
3B
102
}
330
3B
100
AcDbScale
 70
     0
300
1:10
140
1.0
141
10.0
290
     0
  0
SCALE
  5
42
102
{ACAD_REACTORS
330
3B
102
}
330
3B
100
AcDbScale
 70
     0
300
1:16
140
1.0
141
16.0
290
     0
  0
SCALE
  5
43
102
{ACAD_REACTORS
330
3B
102
}
330
3B
100
AcDbScale
 70
     0
300
1:20
140
1.0
141
20.0
290
     0
  0
SCALE
  5
44
102
{ACAD_REACTORS
330
3B
102
}
330
3B
100
AcDbScale
 70
     0
300
1:30
140
1.0
141
30.0
290
     0
  0
SCALE
  5
45
102
{ACAD_REACTORS
330
3B
102
}
330
3B
100
AcDbScale
 70
     0
300
1:40
140
1.0
141
40.0
290
     0
  0
SCALE
  5
46
102
{ACAD_REACTORS
330
3B
102
}
330
3B
100
AcDbScale
 70
     0
300
1:50
140
1.0
141
50.0
290
     0
  0
SCALE
  5
47
102
{ACAD_REACTORS
330
3B
102
}
330
3B
100
AcDbScale
 70
     0
300
1:100
140
1.0
141
100.0
290
     0
  0
SCALE
  5
48
102
{ACAD_REACTORS
330
3B
102
}
330
3B
100
AcDbScale
 70
     0
300
2:1
140
2.0
141
1.0
290
     0
  0
SCALE
  5
49
102
{ACAD_REACTORS
330
3B
102
}
330
3B
100
AcDbScale
 70
     0
300
4:1
140
4.0
141
1.0
290
     0
  0
SCALE
  5
4A
102
{ACAD_REACTORS
330
3B
102
}
330
3B
100
AcDbScale
 70
     0
300
8:1
140
8.0
141
1.0
290
     0
  0
SCALE
  5
4B
102
{ACAD_REACTORS
330
3B
102
}
330
3B
100
AcDbScale
 70
     0
300
10:1
140
10.0
141
1.0
290
     0
  0
SCALE
  5
4C
102
{ACAD_REACTORS
330
3B
102
}
330
3B
100
AcDbScale
 70
     0
300
100:1
140
100.0
141
1.0
290
     0
  0
SCALE
  5
4D
102
{ACAD_REACTORS
330
3B
102
}
330
3B
100
AcDbScale
 70
     0
300
1/128" = 1'-0"
140
0.0078125
141
12.0
290
     0
  0
SCALE
  5
4E
102
{ACAD_REACTORS
330
3B
102
}
330
3B
100
AcDbScale
 70
     0
300
1/64" = 1'-0"
140
0.015625
141
12.0
290
     0
  0
SCALE
  5
4F
102
{ACAD_REACTORS
330
3B
102
}
330
3B
100
AcDbScale
 70
     0
300
1/32" = 1'-0"
140
0.03125
141
12.0
290
     0
  0
SCALE
  5
50
102
{ACAD_REACTORS
330
3B
102
}
330
3B
100
AcDbScale
 70
     0
300
1/16" = 1'-0"
140
0.0625
141
12.0
290
     0
  0
SCALE
  5
51
102
{ACAD_REACTORS
330
3B
102
}
330
3B
100
AcDbScale
 70
     0
300
3/32" = 1'-0"
140
0.09375
141
12.0
290
     0
  0
SCALE
  5
52
102
{ACAD_REACTORS
330
3B
102
}
330
3B
100
AcDbScale
 70
     0
300
1/8" = 1'-0"
140
0.125
141
12.0
290
     0
  0
SCALE
  5
53
102
{ACAD_REACTORS
330
3B
102
}
330
3B
100
AcDbScale
 70
     0
300
3/16" = 1'-0"
140
0.1875
141
12.0
290
     0
  0
SCALE
  5
54
102
{ACAD_REACTORS
330
3B
102
}
330
3B
100
AcDbScale
 70
     0
300
1/4" = 1'-0"
140
0.25
141
12.0
290
     0
  0
SCALE
  5
55
102
{ACAD_REACTORS
330
3B
102
}
330
3B
100
AcDbScale
 70
     0
300
3/8" = 1'-0"
140
0.375
141
12.0
290
     0
  0
SCALE
  5
56
102
{ACAD_REACTORS
330
3B
102
}
330
3B
100
AcDbScale
 70
     0
300
1/2" = 1'-0"
140
0.5
141
12.0
290
     0
  0
SCALE
  5
57
102
{ACAD_REACTORS
330
3B
102
}
330
3B
100
AcDbScale
 70
     0
300
3/4" = 1'-0"
140
0.75
141
12.0
290
     0
  0
SCALE
  5
58
102
{ACAD_REACTORS
330
3B
102
}
330
3B
100
AcDbScale
 70
     0
300
1" = 1'-0"
140
1.0
141
12.0
290
     0
  0
SCALE
  5
59
102
{ACAD_REACTORS
330
3B
102
}
330
3B
100
AcDbScale
 70
     0
300
1-1/2" = 1'-0"
140
1.5
141
12.0
290
     0
  0
SCALE
  5
5A
102
{ACAD_REACTORS
330
3B
102
}
330
3B
100
AcDbScale
 70
     0
300
3" = 1'-0"
140
3.0
141
12.0
290
     0
  0
SCALE
  5
5B
102
{ACAD_REACTORS
330
3B
102
}
330
3B
100
AcDbScale
 70
     0
300
6" = 1'-0"
140
6.0
141
12.0
290
     0
  0
SCALE
  5
5C
102
{ACAD_REACTORS
330
3B
102
}
330
3B
100
AcDbScale
 70
     0
300
1'-0" = 1'-0"
140
12.0
141
12.0
290
     0
  0
TABLESTYLE
  5
71E
102
{ACAD_XDICTIONARY
360
72C
102
}
102
{ACAD_REACTORS
330
701
102
}
330
701
100
AcDbTableStyle
  3
Standard
 70
     0
 71
     0
 40
0.06
 41
0.06
280
     0
281
     0
  7
Standard
140
0.18
170
     2
 62
     0
 63
     7
283
     0
274
    -2
284
     1
 64
     0
275
    -2
285
     1
 65
     0
276
    -2
286
     1
 66
     0
277
    -2
287
     1
 67
     0
278
    -2
288
     1
 68
     0
279
    -2
289
     1
 69
     0
  7
Standard
140
0.25
170
     5
 62
     0
 63
     7
283
     0
274
    -2
284
     1
 64
     0
275
    -2
285
     1
 65
     0
276
    -2
286
     1
 66
     0
277
    -2
287
     1
 67
     0
278
    -2
288
     1
 68
     0
279
    -2
289
     1
 69
     0
  7
Standard
140
0.18
170
     5
 62
     0
 63
     7
283
     0
274
    -2
284
     1
 64
     0
275
    -2
285
     1
 65
     0
276
    -2
286
     1
 66
     0
277
    -2
287
     1
 67
     0
278
    -2
288
     1
 68
     0
279
    -2
289
     1
 69
     0
  0
VISUALSTYLE
  5
2F
102
{ACAD_REACTORS
330
2A
102
}
330
2A
100
AcDbVisualStyle
  2
2dWireframe
 70
     4
 71
     0
 72
     2
 73
     0
 90
        0
 40
-0.6
 41
-30.0
 62
     5
 63
     7
 74
     1
 91
        4
 64
     7
 65
   257
 75
     1
175
     1
 42
1.0
 92
        0
 66
   257
 43
1.0
 76
     1
 77
     6
 78
     2
 67
     7
 79
     5
170
     0
171
     0
290
     0
174
     0
 93
        1
 44
0.0
173
     0
291
     0
 45
0.0
1001
ACAD
1000
AcDbSavedByObjectVersion
1070
     0
  0
VISUALSTYLE
  5
31
102
{ACAD_REACTORS
330
2A
102
}
330
2A
100
AcDbVisualStyle
  2
3D Hidden
 70
     6
 71
     1
 72
     2
 73
     2
 90
        0
 40
-0.6
 41
-30.0
 62
     5
 63
     7
 74
     2
 91
        2
 64
     7
 65
   257
 75
     2
175
     1
 42
40.0
 92
        0
 66
   257
 43
1.0
 76
     1
 77
     6
 78
     2
 67
     7
 79
     3
170
     0
171
     0
290
     0
174
     0
 93
        1
 44
0.0
173
     0
291
     0
 45
0.0
1001
ACAD
1000
AcDbSavedByObjectVersion
1070
     0
  0
VISUALSTYLE
  5
30
102
{ACAD_REACTORS
330
2A
102
}
330
2A
100
AcDbVisualStyle
  2
3dWireframe
 70
     5
 71
     0
 72
     2
 73
     0
 90
        0
 40
-0.6
 41
-30.0
 62
     5
 63
     7
 74
     1
 91
        4
 64
     7
 65
   257
 75
     1
175
     1
 42
1.0
 92
        0
 66
   257
 43
1.0
 76
     1
 77
     6
 78
     2
 67
     7
 79
     5
170
     0
171
     0
290
     0
174
     0
 93
        1
 44
0.0
173
     0
291
     0
 45
0.0
1001
ACAD
1000
AcDbSavedByObjectVersion
1070
     0
  0
VISUALSTYLE
  5
32
102
{ACAD_REACTORS
330
2A
102
}
330
2A
100
AcDbVisualStyle
  2
Basic
 70
     7
 71
     1
 72
     0
 73
     1
 90
        0
 40
-0.6
 41
-30.0
 62
     5
 63
     7
 74
     0
 91
        4
 64
     7
 65
   257
 75
     1
175
     1
 42
1.0
 92
        8
 66
     7
 43
1.0
 76
     1
 77
     6
 78
     2
 67
     7
 79
     5
170
     0
171
     0
290
     0
174
     0
 93
        1
 44
0.0
173
     0
291
     1
 45
0.0
1001
ACAD
1000
AcDbSavedByObjectVersion
1070
     0
  0
VISUALSTYLE
  5
36
102
{ACAD_REACTORS
330
2A
102
}
330
2A
100
AcDbVisualStyle
  2
Brighten
 70
    12
 71
     2
 72
     2
 73
     0
 90
        0
 40
-0.6
 41
-30.0
 62
     5
 63
     7
 74
     1
 91
        4
 64
     7
 65
   257
 75
     1
175
     1
 42
1.0
 92
        8
 66
     7
 43
1.0
 76
     1
 77
     6
 78
     2
 67
     7
 79
     5
170
     0
171
     0
290
     0
174
     0
 93
        1
 44
50.0
173
     0
291
     1
 45
0.0
1001
ACAD
1000
AcDbSavedByObjectVersion
1070
     0
  0
VISUALSTYLE
  5
3A
102
{ACAD_REACTORS
330
2A
102
}
330
2A
100
AcDbVisualStyle
  2
ColorChange
 70
    16
 71
     2
 72
     2
 73
     3
 90
        0
 40
-0.6
 41
-30.0
 62
     5
 63
     8
 74
     1
 91
        4
 64
     7
 65
   257
 75
     1
175
     1
 42
1.0
 92
        8
 66
     8
 43
1.0
 76
     1
 77
     6
 78
     2
 67
     7
 79
     5
170
     0
171
     0
290
     0
174
     0
 93
        1
 44
0.0
173
     0
291
     1
 45
0.0
1001
ACAD
1000
AcDbSavedByObjectVersion
1070
     0
  0
VISUALSTYLE
  5
34
102
{ACAD_REACTORS
330
2A
102
}
330
2A
100
AcDbVisualStyle
  2
Conceptual
 70
     9
 71
     3
 72
     2
 73
     0
 90
        0
 40
-0.6
 41
-30.0
 62
     5
 63
     7
 74
     2
 91
        2
 64
     7
 65
   257
 75
     1
175
     1
 42
40.0
 92
        8
 66
     7
 43
1.0
 76
     1
 77
     6
 78
     2
 67
     7
 79
     3
170
     0
171
     0
290
     0
174
     0
 93
        1
 44
0.0
173
     0
291
     0
 45
0.0
1001
ACAD
1000
AcDbSavedByObjectVersion
1070
     0
  0
VISUALSTYLE
  5
35
102
{ACAD_REACTORS
330
2A
102
}
330
2A
100
AcDbVisualStyle
  2
Dim
 70
    11
 71
     2
 72
     2
 73
     0
 90
        0
 40
-0.6
 41
-30.0
 62
     5
 63
     7
 74
     1
 91
        4
 64
     7
 65
   257
 75
     1
175
     1
 42
1.0
 92
        8
 66
     7
 43
1.0
 76
     1
 77
     6
 78
     2
 67
     7
 79
     5
170
     0
171
     0
290
     0
174
     0
 93
        1
 44
-50.0
173
     0
291
     1
 45
0.0
1001
ACAD
1000
AcDbSavedByObjectVersion
1070
     0
  0
VISUALSTYLE
  5
39
102
{ACAD_REACTORS
330
2A
102
}
330
2A
100
AcDbVisualStyle
  2
Facepattern
 70
    15
 71
     2
 72
     2
 73
     0
 90
        0
 40
-0.6
 41
-30.0
 62
     5
 63
     7
 74
     1
 91
        4
 64
     7
 65
   257
 75
     1
175
     1
 42
1.0
 92
        8
 66
     7
 43
1.0
 76
     1
 77
     6
 78
     2
 67
     7
 79
     5
170
     0
171
     0
290
     0
174
     0
 93
        1
 44
0.0
173
     0
291
     1
 45
0.0
1001
ACAD
1000
AcDbSavedByObjectVersion
1070
     0
  0
VISUALSTYLE
  5
2B
102
{ACAD_REACTORS
330
2A
102
}
330
2A
100
AcDbVisualStyle
  2
Flat
 70
     0
 71
     2
 72
     1
 73
     1
 90
        2
 40
-0.6
 41
30.0
 62
     5
 63
     7
 74
     0
 91
        4
 64
     7
 65
   257
 75
     1
175
     1
 42
1.0
 92
        8
 66
     7
 43
1.0
 76
     1
 77
     6
 78
     2
 67
     7
 79
     5
170
     0
171
     0
290
     0
174
     0
 93
       13
 44
0.0
173
     0
291
     1
 45
0.0
1001
ACAD
1000
AcDbSavedByObjectVersion
1070
     0
  0
VISUALSTYLE
  5
2C
102
{ACAD_REACTORS
330
2A
102
}
330
2A
100
AcDbVisualStyle
  2
FlatWithEdges
 70
     1
 71
     2
 72
     1
 73
     1
 90
        2
 40
-0.6
 41
30.0
 62
     5
 63
     7
 74
     1
 91
        4
 64
     7
 65
   257
 75
     1
175
     1
 42
1.0
 92
        0
 66
   257
 43
1.0
 76
     1
 77
     6
 78
     2
 67
     7
 79
     5
170
     0
171
     0
290
     0
174
     0
 93
       13
 44
0.0
173
     0
291
     1
 45
0.0
1001
ACAD
1000
AcDbSavedByObjectVersion
1070
     0
  0
VISUALSTYLE
  5
2D
102
{ACAD_REACTORS
330
2A
102
}
330
2A
100
AcDbVisualStyle
  2
Gouraud
 70
     2
 71
     2
 72
     2
 73
     1
 90
        2
 40
-0.6
 41
30.0
 62
     5
 63
     7
 74
     0
 91
        4
 64
     7
 65
   257
 75
     1
175
     1
 42
1.0
 92
        0
 66
     7
 43
1.0
 76
     1
 77
     6
 78
     2
 67
     7
 79
     5
170
     0
171
     0
290
     0
174
     0
 93
       13
 44
0.0
173
     0
291
     1
 45
0.0
1001
ACAD
1000
AcDbSavedByObjectVersion
1070
     0
  0
VISUALSTYLE
  5
2E
102
{ACAD_REACTORS
330
2A
102
}
330
2A
100
AcDbVisualStyle
  2
GouraudWithEdges
 70
     3
 71
     2
 72
     2
 73
     1
 90
        2
 40
-0.6
 41
30.0
 62
     5
 63
     7
 74
     1
 91
        4
 64
     7
 65
   257
 75
     1
175
     1
 42
1.0
 92
        0
 66
   257
 43
1.0
 76
     1
 77
     6
 78
     2
 67
     7
 79
     5
170
     0
171
     0
290
     0
174
     0
 93
       13
 44
0.0
173
     0
291
     1
 45
0.0
1001
ACAD
1000
AcDbSavedByObjectVersion
1070
     0
  0
VISUALSTYLE
  5
38
102
{ACAD_REACTORS
330
2A
102
}
330
2A
100
AcDbVisualStyle
  2
Linepattern
 70
    14
 71
     2
 72
     2
 73
     0
 90
        0
 40
-0.6
 41
-30.0
 62
     5
 63
     7
 74
     1
 91
        4
 64
     7
 65
   257
 75
     7
175
     7
 42
1.0
 92
        8
 66
     7
 43
1.0
 76
     1
 77
     6
 78
     2
 67
     7
 79
     5
170
     0
171
     0
290
     0
174
     0
 93
        1
 44
0.0
173
     0
291
     1
 45
0.0
1001
ACAD
1000
AcDbSavedByObjectVersion
1070
     0
  0
VISUALSTYLE
  5
33
102
{ACAD_REACTORS
330
2A
102
}
330
2A
100
AcDbVisualStyle
  2
Realistic
 70
     8
 71
     2
 72
     2
 73
     0
 90
        0
 40
-0.6
 41
-30.0
 62
     5
 63
     7
 74
     1
 91
        0
 64
     7
 65
   257
 75
     1
175
     1
 42
1.0
 92
        8
 66
     8
 43
1.0
 76
     1
 77
     6
 78
     2
 67
     7
 79
     5
170
     0
171
     0
290
     0
174
     0
 93
       13
 44
0.0
173
     0
291
     0
 45
0.0
1001
ACAD
1000
AcDbSavedByObjectVersion
1070
     0
  0
VISUALSTYLE
  5
37
102
{ACAD_REACTORS
330
2A
102
}
330
2A
100
AcDbVisualStyle
  2
Thicken
 70
    13
 71
     2
 72
     2
 73
     0
 90
        0
 40
-0.6
 41
-30.0
 62
     5
 63
     7
 74
     1
 91
        4
 64
     7
 65
   257
 75
     1
175
     1
 42
1.0
 92
       12
 66
     7
 43
1.0
 76
     1
 77
     6
 78
     2
 67
     7
 79
     5
170
     0
171
     0
290
     0
174
     0
 93
        1
 44
0.0
173
     0
291
     1
 45
0.0
1001
ACAD
1000
AcDbSavedByObjectVersion
1070
     0
  0
DICTIONARYVAR
  5
700
102
{ACAD_REACTORS
330
6FF
102
}
330
6FF
100
DictionaryVariables
280
     0
  1
1:1
  0
DICTIONARYVAR
  5
728
102
{ACAD_REACTORS
330
6FF
102
}
330
6FF
100
DictionaryVariables
280
     0
  1
STANDARD
  0
DICTIONARYVAR
  5
727
102
{ACAD_REACTORS
330
6FF
102
}
330
6FF
100
DictionaryVariables
280
     0
  1
STANDARD
  0
DICTIONARYVAR
  5
72B
102
{ACAD_REACTORS
330
6FF
102
}
330
6FF
100
DictionaryVariables
280
     0
  1
1
  0
DICTIONARYVAR
  5
72A
102
{ACAD_REACTORS
330
6FF
102
}
330
6FF
100
DictionaryVariables
280
     0
  1
0
  0
DICTIONARYVAR
  5
729
102
{ACAD_REACTORS
330
6FF
102
}
330
6FF
100
DictionaryVariables
280
     0
  1
127
  0
DICTIONARY
  5
730
330
1E
100
AcDbDictionary
280
     1
281
     1
  3
ACAD_XREC_ROUNDTRIP
360
731
  0
DICTIONARY
  5
734
330
26
100
AcDbDictionary
280
     1
281
     1
  3
ACAD_XREC_ROUNDTRIP
360
735
  0
DICTIONARY
  5
732
330
22
100
AcDbDictionary
280
     1
281
     1
  3
ACAD_XREC_ROUNDTRIP
360
733
  0
DICTIONARY
  5
70E
330
70D
100
AcDbDictionary
280
     1
281
     1
  3
ACAD_XREC_ROUNDTRIP
360
737
  3
BUMPTILE
360
710
  3
DIFFUSETILE
360
70F
  3
OPACITYTILE
360
713
  3
REFLECTIONTILE
360
712
  3
REFRACTIONTILE
360
714
  3
SPECULARTILE
360
711
  0
DICTIONARY
  5
706
330
705
100
AcDbDictionary
280
     1
281
     1
  3
ACAD_XREC_ROUNDTRIP
360
736
  3
BUMPTILE
360
708
  3
DIFFUSETILE
360
707
  3
OPACITYTILE
360
70B
  3
REFLECTIONTILE
360
70A
  3
REFRACTIONTILE
360
70C
  3
SPECULARTILE
360
709
  0
DICTIONARY
  5
716
330
715
100
AcDbDictionary
280
     1
281
     1
  3
ACAD_XREC_ROUNDTRIP
360
738
  3
BUMPTILE
360
718
  3
DIFFUSETILE
360
717
  3
OPACITYTILE
360
71B
  3
REFLECTIONTILE
360
71A
  3
REFRACTIONTILE
360
71C
  3
SPECULARTILE
360
719
  0
DICTIONARY
  5
72C
330
71E
100
AcDbDictionary
280
     1
281
     1
  3
ACAD_ROUNDTRIP_2008_TABLESTYLE_CELLSTYLEMAP
360
72D
  3
ACAD_XREC_ROUNDTRIP
360
739
  0
XRECORD
  5
731
102
{ACAD_REACTORS
330
730
102
}
330
730
100
AcDbXrecord
280
     1
102
SHADEPLOT
 70
     0
102
SHADEPLOTRESLEVEL
 70
     2
102
SHADEPLOTCUSTOMDPI
 70
   300
  0
XRECORD
  5
735
102
{ACAD_REACTORS
330
734
102
}
330
734
100
AcDbXrecord
280
     1
102
SHADEPLOT
 70
     0
102
SHADEPLOTRESLEVEL
 70
     2
102
SHADEPLOTCUSTOMDPI
 70
   300
  0
XRECORD
  5
733
102
{ACAD_REACTORS
330
732
102
}
330
732
100
AcDbXrecord
280
     1
102
SHADEPLOT
 70
     0
102
SHADEPLOTRESLEVEL
 70
     2
102
SHADEPLOTCUSTOMDPI
 70
   300
  0
XRECORD
  5
737
102
{ACAD_REACTORS
330
70E
102
}
330
70E
100
AcDbXrecord
280
     1
102
MATERIAL
148
0.0
149
0.0
149
0.0
 93
        0
 94
      127
282
     0
 72
     0
 77
     0
171
     0
175
     0
179
     0
273
     0
  0
XRECORD
  5
710
102
{ACAD_REACTORS
330
70E
102
}
330
70E
100
AcDbXrecord
280
     1
270
     1
271
     1
  0
XRECORD
  5
70F
102
{ACAD_REACTORS
330
70E
102
}
330
70E
100
AcDbXrecord
280
     1
270
     1
271
     1
  0
XRECORD
  5
713
102
{ACAD_REACTORS
330
70E
102
}
330
70E
100
AcDbXrecord
280
     1
270
     1
271
     1
  0
XRECORD
  5
712
102
{ACAD_REACTORS
330
70E
102
}
330
70E
100
AcDbXrecord
280
     1
270
     1
271
     1
  0
XRECORD
  5
714
102
{ACAD_REACTORS
330
70E
102
}
330
70E
100
AcDbXrecord
280
     1
270
     1
271
     1
  0
XRECORD
  5
711
102
{ACAD_REACTORS
330
70E
102
}
330
70E
100
AcDbXrecord
280
     1
270
     1
271
     1
  0
XRECORD
  5
736
102
{ACAD_REACTORS
330
706
102
}
330
706
100
AcDbXrecord
280
     1
102
MATERIAL
148
0.0
149
0.0
149
0.0
 93
        0
 94
      127
282
     0
 72
     0
 77
     0
171
     0
175
     0
179
     0
273
     0
  0
XRECORD
  5
708
102
{ACAD_REACTORS
330
706
102
}
330
706
100
AcDbXrecord
280
     1
270
     1
271
     1
  0
XRECORD
  5
707
102
{ACAD_REACTORS
330
706
102
}
330
706
100
AcDbXrecord
280
     1
270
     1
271
     1
  0
XRECORD
  5
70B
102
{ACAD_REACTORS
330
706
102
}
330
706
100
AcDbXrecord
280
     1
270
     1
271
     1
  0
XRECORD
  5
70A
102
{ACAD_REACTORS
330
706
102
}
330
706
100
AcDbXrecord
280
     1
270
     1
271
     1
  0
XRECORD
  5
70C
102
{ACAD_REACTORS
330
706
102
}
330
706
100
AcDbXrecord
280
     1
270
     1
271
     1
  0
XRECORD
  5
709
102
{ACAD_REACTORS
330
706
102
}
330
706
100
AcDbXrecord
280
     1
270
     1
271
     1
  0
XRECORD
  5
738
102
{ACAD_REACTORS
330
716
102
}
330
716
100
AcDbXrecord
280
     1
102
MATERIAL
148
0.0
149
0.0
149
0.0
 93
        0
 94
      127
282
     0
 72
     0
 77
     0
171
     0
175
     0
179
     0
273
     0
  0
XRECORD
  5
718
102
{ACAD_REACTORS
330
716
102
}
330
716
100
AcDbXrecord
280
     1
270
     1
271
     1
  0
XRECORD
  5
717
102
{ACAD_REACTORS
330
716
102
}
330
716
100
AcDbXrecord
280
     1
270
     1
271
     1
  0
XRECORD
  5
71B
102
{ACAD_REACTORS
330
716
102
}
330
716
100
AcDbXrecord
280
     1
270
     1
271
     1
  0
XRECORD
  5
71A
102
{ACAD_REACTORS
330
716
102
}
330
716
100
AcDbXrecord
280
     1
270
     1
271
     1
  0
XRECORD
  5
71C
102
{ACAD_REACTORS
330
716
102
}
330
716
100
AcDbXrecord
280
     1
270
     1
271
     1
  0
XRECORD
  5
719
102
{ACAD_REACTORS
330
716
102
}
330
716
100
AcDbXrecord
280
     1
270
     1
271
     1
  0
CELLSTYLEMAP
  5
72D
102
{ACAD_REACTORS
330
72C
102
}
330
72C
100
AcDbCellStyleMap
 90
        3
300
CELLSTYLE
  1
TABLEFORMAT_BEGIN
 90
        5
170
     1
 91
        0
 92
    32768
 62
   257
 93
        1
300
CONTENTFORMAT
  1
CONTENTFORMAT_BEGIN
 90
        0
 91
        0
 92
      512
 93
        0
300

 40
0.0
140
1.0
 94
        5
 62
     0
340
11
144
0.25
309
CONTENTFORMAT_END
171
     0
 94
        0
309
TABLEFORMAT_END
  1
CELLSTYLE_BEGIN
 90
        1
 91
        1
300
_TITLE
309
CELLSTYLE_END
300
CELLSTYLE
  1
TABLEFORMAT_BEGIN
 90
        5
170
     1
 91
        0
 92
        0
 62
   257
 93
        1
300
CONTENTFORMAT
  1
CONTENTFORMAT_BEGIN
 90
        0
 91
        0
 92
      512
 93
        0
300

 40
0.0
140
1.0
 94
        5
 62
     0
340
11
144
0.18
309
CONTENTFORMAT_END
171
     0
 94
        0
309
TABLEFORMAT_END
  1
CELLSTYLE_BEGIN
 90
        2
 91
        1
300
_HEADER
309
CELLSTYLE_END
300
CELLSTYLE
  1
TABLEFORMAT_BEGIN
 90
        5
170
     1
 91
        0
 92
        0
 62
   257
 93
        1
300
CONTENTFORMAT
  1
CONTENTFORMAT_BEGIN
 90
        0
 91
        0
 92
      512
 93
        0
300

 40
0.0
140
1.0
 94
        2
 62
     0
340
11
144
0.18
309
CONTENTFORMAT_END
171
     0
 94
        0
309
TABLEFORMAT_END
  1
CELLSTYLE_BEGIN
 90
        3
 91
        2
300
_DATA
309
CELLSTYLE_END
  0
XRECORD
  5
739
102
{ACAD_REACTORS
330
72C
102
}
330
72C
100
AcDbXrecord
280
     1
102
ACAD_ROUNDTRIP_PRE2007_TABLESTYLE
 90
      512
 91
        0
  1

 92
      512
 93
        0
  2

 94
      512
 95
        0
  3

  0
ENDSEC
  0
EOF
