  0
SECTION
  2
HEADER
  9
$ACADVER
  1
AC1015
  9
$ACADMAINTVER
 70
    20
  9
$DWGCODEPAGE
  3
ANSI_1252
  9
$INSBASE
 10
0.0
 20
0.0
 30
0.0
  9
$EXTMIN
 10
2.107360862087645
 20
2.759063749526472
 30
-0.0015258207003583
  9
$EXTMAX
 10
6.816108721443576
 20
9.20101931062646
 30
0.0000000349246037
  9
$LIMMIN
 10
0.0
 20
0.0
  9
$LIMMAX
 10
8.5
 20
11.0
  9
$ORTHOMODE
 70
     0
  9
$REGENMODE
 70
     1
  9
$FILLMODE
 70
     1
  9
$QTEXTMODE
 70
     0
  9
$MIRRTEXT
 70
     1
  9
$LTSCALE
 40
1.0
  9
$ATTMODE
 70
     1
  9
$TEXTSIZE
 40
0.2
  9
$TRACEWID
 40
0.05
  9
$TEXTSTYLE
  7
Standard
  9
$CLAYER
  8
0
  9
$CELTYPE
  6
ByLayer
  9
$CECOLOR
 62
   256
  9
$CELTSCALE
 40
1.0
  9
$DISPSILH
 70
     0
  9
$DIMSCALE
 40
1.0
  9
$DIMASZ
 40
0.12
  9
$DIMEXO
 40
0.0625
  9
$DIMDLI
 40
0.38
  9
$DIMRND
 40
0.0
  9
$DIMDLE
 40
0.0
  9
$DIMEXE
 40
0.125
  9
$DIMTP
 40
0.0
  9
$DIMTM
 40
0.0
  9
$DIMTXT
 40
0.1666666666666666
  9
$DIMCEN
 40
0.09
  9
$DIMTSZ
 40
0.0
  9
$DIMTOL
 70
     0
  9
$DIMLIM
 70
     0
  9
$DIMTIH
 70
     1
  9
$DIMTOH
 70
     1
  9
$DIMSE1
 70
     0
  9
$DIMSE2
 70
     0
  9
$DIMTAD
 70
     0
  9
$DIMZIN
 70
     0
  9
$DIMBLK
  1

  9
$DIMASO
 70
     1
  9
$DIMSHO
 70
     1
  9
$DIMPOST
  1

  9
$DIMAPOST
  1

  9
$DIMALT
 70
     0
  9
$DIMALTD
 70
     2
  9
$DIMALTF
 40
25.4
  9
$DIMLFAC
 40
8.0
  9
$DIMTOFL
 70
     0
  9
$DIMTVP
 40
0.0
  9
$DIMTIX
 70
     0
  9
$DIMSOXD
 70
     0
  9
$DIMSAH
 70
     0
  9
$DIMBLK1
  1

  9
$DIMBLK2
  1

  9
$DIMSTYLE
  2
Standard
  9
$DIMCLRD
 70
     0
  9
$DIMCLRE
 70
     0
  9
$DIMCLRT
 70
     0
  9
$DIMTFAC
 40
1.0
  9
$DIMGAP
 40
0.06
  9
$DIMJUST
 70
     0
  9
$DIMSD1
 70
     0
  9
$DIMSD2
 70
     0
  9
$DIMTOLJ
 70
     1
  9
$DIMTZIN
 70
     0
  9
$DIMALTZ
 70
     0
  9
$DIMALTTZ
 70
     0
  9
$DIMUPT
 70
     0
  9
$DIMDEC
 70
     4
  9
$DIMTDEC
 70
     4
  9
$DIMALTU
 70
     2
  9
$DIMALTTD
 70
     2
  9
$DIMTXSTY
  7
Standard
  9
$DIMAUNIT
 70
     0
  9
$DIMADEC
 70
     0
  9
$DIMALTRND
 40
0.0
  9
$DIMAZIN
 70
     0
  9
$DIMDSEP
 70
    46
  9
$DIMATFIT
 70
     3
  9
$DIMFRAC
 70
     0
  9
$DIMLDRBLK
  1

  9
$DIMLUNIT
 70
     2
  9
$DIMLWD
 70
    -2
  9
$DIMLWE
 70
    -2
  9
$DIMTMOVE
 70
     0
  9
$LUNITS
 70
     2
  9
$LUPREC
 70
     2
  9
$SKETCHINC
 40
0.1
  9
$FILLETRAD
 40
0.5
  9
$AUNITS
 70
     0
  9
$AUPREC
 70
     0
  9
$MENU
  1
.
  9
$ELEVATION
 40
0.0
  9
$PELEVATION
 40
0.0
  9
$THICKNESS
 40
0.0
  9
$LIMCHECK
 70
     0
  9
$CHAMFERA
 40
0.5
  9
$CHAMFERB
 40
0.5
  9
$CHAMFERC
 40
1.0
  9
$CHAMFERD
 40
0.0
  9
$SKPOLY
 70
     0
  9
$TDCREATE
 40
2455441.565102778
  9
$TDUCREATE
 40
2455441.773436111
  9
$TDUPDATE
 40
2455441.566793322
  9
$TDUUPDATE
 40
2455441.775126655
  9
$TDINDWG
 40
0.0012429514
  9
$TDUSRTIMER
 40
0.0012429514
  9
$USRTIMER
 70
     1
  9
$ANGBASE
 50
0.0
  9
$ANGDIR
 70
     0
  9
$PDMODE
 70
     0
  9
$PDSIZE
 40
-1.0
  9
$PLINEWID
 40
0.0
  9
$SPLFRAME
 70
     0
  9
$SPLINETYPE
 70
     6
  9
$SPLINESEGS
 70
     8
  9
$HANDSEED
  5
400
  9
$SURFTAB1
 70
     6
  9
$SURFTAB2
 70
     6
  9
$SURFTYPE
 70
     6
  9
$SURFU
 70
     6
  9
$SURFV
 70
     6
  9
$UCSBASE
  2

  9
$UCSNAME
  2

  9
$UCSORG
 10
0.0
 20
0.0
 30
0.0
  9
$UCSXDIR
 10
1.0
 20
0.0
 30
0.0
  9
$UCSYDIR
 10
0.0
 20
1.0
 30
0.0
  9
$UCSORTHOREF
  2

  9
$UCSORTHOVIEW
 70
     0
  9
$UCSORGTOP
 10
0.0
 20
0.0
 30
0.0
  9
$UCSORGBOTTOM
 10
0.0
 20
0.0
 30
0.0
  9
$UCSORGLEFT
 10
0.0
 20
0.0
 30
0.0
  9
$UCSORGRIGHT
 10
0.0
 20
0.0
 30
0.0
  9
$UCSORGFRONT
 10
0.0
 20
0.0
 30
0.0
  9
$UCSORGBACK
 10
0.0
 20
0.0
 30
0.0
  9
$PUCSBASE
  2

  9
$PUCSNAME
  2

  9
$PUCSORG
 10
0.0
 20
0.0
 30
0.0
  9
$PUCSXDIR
 10
1.0
 20
0.0
 30
0.0
  9
$PUCSYDIR
 10
0.0
 20
1.0
 30
0.0
  9
$PUCSORTHOREF
  2

  9
$PUCSORTHOVIEW
 70
     0
  9
$PUCSORGTOP
 10
0.0
 20
0.0
 30
0.0
  9
$PUCSORGBOTTOM
 10
0.0
 20
0.0
 30
0.0
  9
$PUCSORGLEFT
 10
0.0
 20
0.0
 30
0.0
  9
$PUCSORGRIGHT
 10
0.0
 20
0.0
 30
0.0
  9
$PUCSORGFRONT
 10
0.0
 20
0.0
 30
0.0
  9
$PUCSORGBACK
 10
0.0
 20
0.0
 30
0.0
  9
$USERI1
 70
     0
  9
$USERI2
 70
     0
  9
$USERI3
 70
     0
  9
$USERI4
 70
     0
  9
$USERI5
 70
     0
  9
$USERR1
 40
0.0
  9
$USERR2
 40
0.0
  9
$USERR3
 40
0.0
  9
$USERR4
 40
0.0
  9
$USERR5
 40
0.0
  9
$WORLDVIEW
 70
     1
  9
$SHADEDGE
 70
     3
  9
$SHADEDIF
 70
    70
  9
$TILEMODE
 70
     1
  9
$MAXACTVP
 70
    64
  9
$PINSBASE
 10
0.0
 20
0.0
 30
0.0
  9
$PLIMCHECK
 70
     0
  9
$PEXTMIN
 10
1.000000000000000E+20
 20
1.000000000000000E+20
 30
1.000000000000000E+20
  9
$PEXTMAX
 10
-1.000000000000000E+20
 20
-1.000000000000000E+20
 30
-1.000000000000000E+20
  9
$PLIMMIN
 10
0.0
 20
0.0
  9
$PLIMMAX
 10
12.0
 20
9.0
  9
$UNITMODE
 70
     0
  9
$VISRETAIN
 70
     1
  9
$PLINEGEN
 70
     0
  9
$PSLTSCALE
 70
     1
  9
$TREEDEPTH
 70
  3020
  9
$CMLSTYLE
  2
Standard
  9
$CMLJUST
 70
     0
  9
$CMLSCALE
 40
1.0
  9
$PROXYGRAPHICS
 70
     1
  9
$MEASUREMENT
 70
     0
  9
$CELWEIGHT
370
    -1
  9
$ENDCAPS
280
     0
  9
$JOINSTYLE
280
     0
  9
$LWDISPLAY
290
     1
  9
$INSUNITS
 70
     1
  9
$HYPERLINKBASE
  1

  9
$STYLESHEET
  1

  9
$XEDIT
290
     1
  9
$CEPSNTYPE
380
     0
  9
$PSTYLEMODE
290
     1
  9
$FINGERPRINTGUID
  2
{2901153E-8CD8-46A8-BAD5-FF55B63FE602}
  9
$VERSIONGUID
  2
{3206D2D4-FFD3-42E0-A0F2-3D5B3223EDE6}
  9
$EXTNAMES
290
     1
  9
$PSVPSCALE
 40
0.0
  9
$OLESTARTUP
290
     0
  0
ENDSEC
  0
SECTION
  2
CLASSES
  0
CLASS
  1
ACDBDICTIONARYWDFLT
  2
AcDbDictionaryWithDefault
  3
ObjectDBX Classes
 90
        0
280
     0
281
     0
  0
CLASS
  1
VISUALSTYLE
  2
AcDbVisualStyle
  3
ObjectDBX Classes
 90
     4095
280
     0
281
     0
  0
CLASS
  1
SCALE
  2
AcDbScale
  3
ObjectDBX Classes
 90
     1153
280
     0
281
     0
  0
CLASS
  1
DICTIONARYVAR
  2
AcDbDictionaryVar
  3
ObjectDBX Classes
 90
        0
280
     0
281
     0
  0
CLASS
  1
ACDBPLACEHOLDER
  2
AcDbPlaceHolder
  3
ObjectDBX Classes
 90
        0
280
     0
281
     0
  0
CLASS
  1
LAYOUT
  2
AcDbLayout
  3
ObjectDBX Classes
 90
        0
280
     0
281
     0
  0
CLASS
  1
MATERIAL
  2
AcDbMaterial
  3
ObjectDBX Classes
 90
     1153
280
     0
281
     0
  0
CLASS
  1
TABLESTYLE
  2
AcDbTableStyle
  3
ObjectDBX Classes
 90
     4095
280
     0
281
     0
  0
CLASS
  1
MLEADERSTYLE
  2
AcDbMLeaderStyle
  3
ACDB_MLEADERSTYLE_CLASS
 90
     4095
280
     0
281
     0
  0
CLASS
  1
CELLSTYLEMAP
  2
AcDbCellStyleMap
  3
ObjectDBX Classes
 90
     1152
280
     0
281
     0
  0
ENDSEC
  0
SECTION
  2
TABLES
  0
TABLE
  2
VPORT
  5
8
330
0
100
AcDbSymbolTable
 70
     1
  0
VPORT
  5
29
330
8
100
AcDbSymbolTableRecord
100
AcDbViewportTableRecord
  2
*Active
 70
     0
 10
0.0
 20
0.0
 11
1.0
 21
1.0
 12
4.501290883897842
 22
6.234551517760712
 13
0.0
 23
0.0
 14
0.5
 24
0.5
 15
0.5
 25
0.5
 16
0.0
 26
0.0
 36
1.0
 17
0.0
 27
0.0
 37
0.0
 40
7.281918843572537
 41
1.427771556550951
 42
50.0
 43
0.0
 44
0.0
 50
0.0
 51
0.0
 71
     0
 72
  2000
 73
     1
 74
     2
 75
     0
 76
     0
 77
     0
 78
     0
281
     0
 65
     1
110
0.0
120
0.0
130
0.0
111
1.0
121
0.0
131
0.0
112
0.0
122
1.0
132
0.0
 79
     0
146
0.0
  0
ENDTAB
  0
TABLE
  2
LTYPE
  5
5
330
0
100
AcDbSymbolTable
 70
     6
  0
LTYPE
  5
14
330
5
100
AcDbSymbolTableRecord
100
AcDbLinetypeTableRecord
  2
ByBlock
 70
     0
  3

 72
    65
 73
     0
 40
0.0
  0
LTYPE
  5
15
330
5
100
AcDbSymbolTableRecord
100
AcDbLinetypeTableRecord
  2
ByLayer
 70
     0
  3

 72
    65
 73
     0
 40
0.0
  0
LTYPE
  5
16
330
5
100
AcDbSymbolTableRecord
100
AcDbLinetypeTableRecord
  2
Continuous
 70
     0
  3
Solid line
 72
    65
 73
     0
 40
0.0
  0
LTYPE
  5
5D
330
5
100
AcDbSymbolTableRecord
100
AcDbLinetypeTableRecord
  2
HIDDEN
 70
     0
  3
Hidden __ __ __ __ __ __ __ __ __ __ __ __ __ __
 72
    65
 73
     2
 40
0.075
 49
0.05
 74
     0
 49
-0.025
 74
     0
  0
LTYPE
  5
5E
330
5
100
AcDbSymbolTableRecord
100
AcDbLinetypeTableRecord
  2
PHANTOM
 70
     0
  3
Phantom ______  __  __  ______  __  __  ______
 72
    65
 73
     6
 40
0.5
 49
0.25
 74
     0
 49
-0.05
 74
     0
 49
0.05
 74
     0
 49
-0.05
 74
     0
 49
0.05
 74
     0
 49
-0.05
 74
     0
  0
LTYPE
  5
5F
330
5
100
AcDbSymbolTableRecord
100
AcDbLinetypeTableRecord
  2
CENTER
 70
     0
  3
Center ____ _ ____ _ ____ _ ____ _ ____ _ ____
 72
    65
 73
     4
 40
0.4
 49
0.25
 74
     0
 49
-0.05
 74
     0
 49
0.05
 74
     0
 49
-0.05
 74
     0
  0
LTYPE
  5
60
330
5
100
AcDbSymbolTableRecord
100
AcDbLinetypeTableRecord
  2
CENTERX2
 70
     0
  3
Center (2x) ________  __  ________  __  _____
 72
    65
 73
     4
 40
0.8
 49
0.5
 74
     0
 49
-0.1
 74
     0
 49
0.1
 74
     0
 49
-0.1
 74
     0
  0
LTYPE
  5
61
330
5
100
AcDbSymbolTableRecord
100
AcDbLinetypeTableRecord
  2
DOT2
 70
     0
  3
Dot (.5x) ........................................
 72
    65
 73
     2
 40
0.025
 49
0.0
 74
     0
 49
-0.025
 74
     0
  0
ENDTAB
  0
TABLE
  2
LAYER
  5
2
330
0
100
AcDbSymbolTable
 70
     2
  0
LAYER
  5
10
102
{ACAD_XDICTIONARY
360
3E9
102
}
330
2
100
AcDbSymbolTableRecord
100
AcDbLayerTableRecord
  2
0
 70
     0
 62
     7
  6
Continuous
370
    -3
390
F
  0
LAYER
  5
62
102
{ACAD_XDICTIONARY
360
3EB
102
}
330
2
100
AcDbSymbolTableRecord
100
AcDbLayerTableRecord
  2
WALL
 70
     0
 62
     7
  6
Continuous
370
    40
390
F
  0
ENDTAB
  0
TABLE
  2
STYLE
  5
3
330
0
100
AcDbSymbolTable
 70
     3
  0
STYLE
  5
11
330
3
100
AcDbSymbolTableRecord
100
AcDbTextStyleTableRecord
  2
Standard
 70
     0
 40
0.0
 41
1.0
 50
0.0
 71
     0
 42
0.2
  3
txt
  4

  0
STYLE
  5
6D
330
3
100
AcDbSymbolTableRecord
100
AcDbTextStyleTableRecord
  2
SLDTEXTSTYLE0
 70
     0
 40
0.0
 41
0.605
 50
0.0
 71
     0
 42
0.2
  3
TXT
  4

  0
STYLE
  5
7B
330
3
100
AcDbSymbolTableRecord
100
AcDbTextStyleTableRecord
  2
SLDTEXTSTYLE1
 70
     0
 40
0.0
 41
0.7
 50
0.0
 71
     0
 42
0.2
  3
TXT
  4

  0
ENDTAB
  0
TABLE
  2
VIEW
  5
6
330
0
100
AcDbSymbolTable
 70
     0
  0
ENDTAB
  0
TABLE
  2
UCS
  5
7
330
0
100
AcDbSymbolTable
 70
     0
  0
ENDTAB
  0
TABLE
  2
APPID
  5
9
330
0
100
AcDbSymbolTable
 70
     2
  0
APPID
  5
12
330
9
100
AcDbSymbolTableRecord
100
AcDbRegAppTableRecord
  2
ACAD
 70
     0
  0
APPID
  5
3E6
330
9
100
AcDbSymbolTableRecord
100
AcDbRegAppTableRecord
  2
ACAD_MLEADERVER
 70
     0
  0
ENDTAB
  0
TABLE
  2
DIMSTYLE
  5
A
330
0
100
AcDbSymbolTable
 70
     4
100
AcDbDimStyleTable
 71
     0
  0
DIMSTYLE
105
27
330
A
100
AcDbSymbolTableRecord
100
AcDbDimStyleTableRecord
  2
Standard
 70
     0
340
11
  0
DIMSTYLE
105
278
330
A
100
AcDbSymbolTableRecord
100
AcDbDimStyleTableRecord
  2
SLDDIMSTYLE0
 70
     0
 41
0.12
 44
0.0
 45
0.000000001
 78
    12
140
0.121337890625
144
3.0
147
0.03033447265625
173
     1
271
     2
272
     3
284
    12
340
6D
  0
DIMSTYLE
105
38E
330
A
100
AcDbSymbolTableRecord
100
AcDbDimStyleTableRecord
  2
SLDDIMSTYLE1
 70
     0
 41
0.12
 44
0.0
 45
0.000000001
 78
    12
140
0.121337890625
144
3.0
147
0.03033447265625
173
     1
271
     2
272
     3
284
    12
340
6D
  0
DIMSTYLE
105
3C2
330
A
100
AcDbSymbolTableRecord
100
AcDbDimStyleTableRecord
  2
SLDDIMSTYLE2
 70
     0
 41
0.12
 44
0.0
 45
0.000000001
140
0.12
147
0.03
173
     1
271
     0
272
     0
340
11
  0
ENDTAB
  0
TABLE
  2
BLOCK_RECORD
  5
1
330
0
100
AcDbSymbolTable
 70
    12
  0
BLOCK_RECORD
  5
1F
330
1
100
AcDbSymbolTableRecord
100
AcDbBlockTableRecord
  2
*Model_Space
340
22
  0
BLOCK_RECORD
  5
1B
330
1
100
AcDbSymbolTableRecord
100
AcDbBlockTableRecord
  2
*Paper_Space
340
1E
  0
BLOCK_RECORD
  5
23
330
1
100
AcDbSymbolTableRecord
100
AcDbBlockTableRecord
  2
*Paper_Space0
340
26
  0
BLOCK_RECORD
  5
71
330
1
100
AcDbSymbolTableRecord
100
AcDbBlockTableRecord
  2
SW_NOTE_0
340
0
  0
BLOCK_RECORD
  5
80
330
1
100
AcDbSymbolTableRecord
100
AcDbBlockTableRecord
  2
SW_NOTE_1
340
0
  0
BLOCK_RECORD
  5
8A
330
1
100
AcDbSymbolTableRecord
100
AcDbBlockTableRecord
  2
SW_TABLEANNOTATION_0
340
0
  0
BLOCK_RECORD
  5
279
330
1
100
AcDbSymbolTableRecord
100
AcDbBlockTableRecord
  2
*D4
340
0
  0
BLOCK_RECORD
  5
285
330
1
100
AcDbSymbolTableRecord
100
AcDbBlockTableRecord
  2
*D5
340
0
  0
BLOCK_RECORD
  5
291
330
1
100
AcDbSymbolTableRecord
100
AcDbBlockTableRecord
  2
*D6
340
0
  0
BLOCK_RECORD
  5
38F
330
1
100
AcDbSymbolTableRecord
100
AcDbBlockTableRecord
  2
*D7
340
0
  0
BLOCK_RECORD
  5
39A
330
1
100
AcDbSymbolTableRecord
100
AcDbBlockTableRecord
  2
*D8
340
0
  0
BLOCK_RECORD
  5
3A5
330
1
100
AcDbSymbolTableRecord
100
AcDbBlockTableRecord
  2
*D9
340
0
  0
BLOCK_RECORD
  5
3B1
330
1
100
AcDbSymbolTableRecord
100
AcDbBlockTableRecord
  2
*D10
340
0
  0
BLOCK_RECORD
  5
3BC
330
1
100
AcDbSymbolTableRecord
100
AcDbBlockTableRecord
  2
SW_NOTE_2
340
0
  0
ENDTAB
  0
ENDSEC
  0
SECTION
  2
BLOCKS
  0
BLOCK
  5
20
330
1F
100
AcDbEntity
  8
0
100
AcDbBlockBegin
  2
*Model_Space
 70
     0
 10
0.0
 20
0.0
 30
0.0
  3
*Model_Space
  1

  0
ENDBLK
  5
21
330
1F
100
AcDbEntity
  8
0
100
AcDbBlockEnd
  0
BLOCK
  5
1C
330
1B
100
AcDbEntity
 67
     1
  8
0
100
AcDbBlockBegin
  2
*Paper_Space
 70
     0
 10
0.0
 20
0.0
 30
0.0
  3
*Paper_Space
  1

  0
ENDBLK
  5
1D
330
1B
100
AcDbEntity
 67
     1
  8
0
100
AcDbBlockEnd
  0
BLOCK
  5
24
330
23
100
AcDbEntity
 67
     1
  8
0
100
AcDbBlockBegin
  2
*Paper_Space0
 70
     0
 10
0.0
 20
0.0
 30
0.0
  3
*Paper_Space0
  1

  0
ENDBLK
  5
25
330
23
100
AcDbEntity
 67
     1
  8
0
100
AcDbBlockEnd
  0
BLOCK
  5
72
330
71
100
AcDbEntity
  8
0
100
AcDbBlockBegin
  2
SW_NOTE_0
 70
     0
 10
0.0
 20
0.0
 30
0.0
  3
SW_NOTE_0
  1

  0
MTEXT
  5
74
330
71
100
AcDbEntity
  8
0
  6
Continuous
 62
     0
370
     0
100
AcDbMText
 10
0.0
 20
0.1342778895595789
 30
0.0
 40
0.1041666666666667
 41
0.0
 71
     1
 72
     1
  1
JOSAM SERIES WF6S ADJUSTABLE COATED CAST IRON SQUARE
  7
SLDTEXTSTYLE0
 73
     1
 44
1.0
1001
ACAD
1000
MTEXTBEGIN
1070
    73
1070
     1
1070
    44
1040
1.0
1070
    74
1070
     0
1000
MTEXTEND
  0
MTEXT
  5
75
330
71
100
AcDbEntity
  8
0
  6
Continuous
 62
     0
370
     0
100
AcDbMText
 10
0.0
 20
-0.0046109976508109
 30
0.0
 40
0.1041666666666667
 41
0.0
 71
     1
 72
     1
  1
GRATE, WIDE FLANGE STRAINER BODY, WITH SQUARE SATIN FINISH
  7
SLDTEXTSTYLE0
 73
     1
 44
1.0
1001
ACAD
1000
MTEXTBEGIN
1070
    73
1070
     1
1070
    44
1040
1.0
1070
    74
1070
     0
1000
MTEXTEND
  0
MTEXT
  5
76
330
71
100
AcDbEntity
  8
0
  6
Continuous
 62
     0
370
     0
100
AcDbMText
 10
0.0
 20
-0.1434998848612006
 30
0.0
 40
0.1041666666666667
 41
0.0
 71
     1
 72
     1
  1
NIKALOY SUPER-FLO    RIM AND GRATE, THREADED WITH JOSAM
  7
SLDTEXTSTYLE0
 73
     1
 44
1.0
1001
ACAD
1000
MTEXTBEGIN
1070
    73
1070
     1
1070
    44
1040
1.0
1070
    74
1070
     0
1000
MTEXTEND
  0
MTEXT
  5
77
330
71
100
AcDbEntity
  8
0
  6
Continuous
 62
     0
370
     0
100
AcDbMText
 10
0.0
 20
-0.2823887720715904
 30
0.0
 40
0.1041666666666667
 41
0.0
 71
     1
 72
     1
  1
ADJUSTABLE STRAINER THREAD.
  7
SLDTEXTSTYLE0
 73
     1
 44
1.0
1001
ACAD
1000
MTEXTBEGIN
1070
    73
1070
     1
1070
    44
1040
1.0
1070
    74
1070
     0
1000
MTEXTEND
  0
ENDBLK
  5
73
330
71
100
AcDbEntity
  8
0
100
AcDbBlockEnd
  0
BLOCK
  5
81
330
80
100
AcDbEntity
  8
0
100
AcDbBlockBegin
  2
SW_NOTE_1
 70
     0
 10
0.0
 20
0.0
 30
0.0
  3
SW_NOTE_1
  1

  0
MTEXT
  5
83
330
80
100
AcDbEntity
  8
0
  6
Continuous
 62
     0
370
     0
100
AcDbMText
 10
0.0
 20
0.1007084171696848
 30
0.0
 40
0.078125
 41
0.0
 71
     1
 72
     1
  1
DIMENSIONS ARE SUBJECT TO MANUFACTURERS
  7
SLDTEXTSTYLE0
 73
     1
 44
1.0
1001
ACAD
1000
MTEXTBEGIN
1070
    73
1070
     1
1070
    44
1040
1.0
1070
    74
1070
     0
1000
MTEXTEND
  0
MTEXT
  5
84
330
80
100
AcDbEntity
  8
0
  6
Continuous
 62
     0
370
     0
100
AcDbMText
 10
0.0785048464386482
 20
-0.0086665826543172
 30
0.0
 40
0.078125
 41
0.0
 71
     1
 72
     1
  1
TOLERANCES AND CHANGE WITHOUT NOTICE.
  7
SLDTEXTSTYLE0
 73
     1
 44
1.0
1001
ACAD
1000
MTEXTBEGIN
1070
    73
1070
     1
1070
    44
1040
1.0
1070
    74
1070
     0
1000
MTEXTEND
  0
MTEXT
  5
85
330
80
100
AcDbEntity
  8
0
  6
Continuous
 62
     0
370
     0
100
AcDbMText
 10
0.1749607521717943
 20
-0.1180415824783193
 30
0.0
 40
0.078125
 41
0.0
 71
     1
 72
     1
  1
WE CAN ASSUME NO RESPONSIBILITY FOR
  7
SLDTEXTSTYLE0
 73
     1
 44
1.0
1001
ACAD
1000
MTEXTBEGIN
1070
    73
1070
     1
1070
    44
1040
1.0
1070
    74
1070
     0
1000
MTEXTEND
  0
MTEXT
  5
86
330
80
100
AcDbEntity
  8
0
  6
Continuous
 62
     0
370
     0
100
AcDbMText
 10
0.3091633085190781
 20
-0.2274165823023213
 30
0.0
 40
0.078125
 41
0.0
 71
     1
 72
     1
  1
USE OF SUPERSEDED OR VOID DATA.
  7
SLDTEXTSTYLE0
 73
     1
 44
1.0
1001
ACAD
1000
MTEXTBEGIN
1070
    73
1070
     1
1070
    44
1040
1.0
1070
    74
1070
     0
1000
MTEXTEND
  0
ENDBLK
  5
82
330
80
100
AcDbEntity
  8
0
100
AcDbBlockEnd
  0
BLOCK
  5
8B
330
8A
100
AcDbEntity
  8
0
100
AcDbBlockBegin
  2
SW_TABLEANNOTATION_0
 70
     0
 10
0.0
 20
0.0
 30
0.0
  3
SW_TABLEANNOTATION_0
  1

  0
LINE
  5
8D
330
8A
100
AcDbEntity
  8
WALL
 62
     0
100
AcDbLine
 10
0.0
 20
0.0
 30
0.0
 11
0.0
 21
-1.128513190690692
 31
0.0
  0
LINE
  5
8E
330
8A
100
AcDbEntity
  8
WALL
 62
     0
100
AcDbLine
 10
0.0
 20
-1.128513190690692
 30
0.0
 11
7.999305400829127
 21
-1.128513190690692
 31
0.0
  0
LINE
  5
8F
330
8A
100
AcDbEntity
  8
WALL
 62
     0
100
AcDbLine
 10
7.999305400829127
 20
-1.128513190690692
 30
0.0
 11
7.999305400829127
 21
0.0
 31
0.0
  0
LINE
  5
90
330
8A
100
AcDbEntity
  8
WALL
 62
     0
100
AcDbLine
 10
7.999305400829127
 20
0.0
 30
0.0
 11
0.0
 21
0.0
 31
0.0
  0
LINE
  5
91
330
8A
100
AcDbEntity
  8
WALL
 62
     0
100
AcDbLine
 10
0.2466440115756926
 20
0.0
 30
0.0
 11
0.2466440115756926
 21
-1.128513190690692
 31
0.0
  0
LINE
  5
92
330
8A
100
AcDbEntity
  8
WALL
 62
     0
100
AcDbLine
 10
0.4133106782423594
 20
0.0
 30
0.0
 11
0.4133106782423594
 21
-1.128513190690692
 31
0.0
  0
LINE
  5
93
330
8A
100
AcDbEntity
  8
WALL
 62
     0
100
AcDbLine
 10
0.9813111799530471
 20
0.0
 30
0.0
 11
0.9813111799530471
 21
-1.128513190690692
 31
0.0
  0
LINE
  5
94
330
8A
100
AcDbEntity
  8
WALL
 62
     0
100
AcDbLine
 10
4.15277464482888
 20
0.0
 30
0.0
 11
4.15277464482888
 21
-1.128513190690692
 31
0.0
  0
LINE
  5
95
330
8A
100
AcDbEntity
  8
WALL
 62
     0
100
AcDbLine
 10
4.377778519272577
 20
0.0
 30
0.0
 11
4.377778519272577
 21
-1.128513190690692
 31
0.0
  0
LINE
  5
96
330
8A
100
AcDbEntity
  8
WALL
 62
     0
100
AcDbLine
 10
4.544445185939244
 20
0.0
 30
0.0
 11
4.544445185939244
 21
-1.128513190690692
 31
0.0
  0
LINE
  5
97
330
8A
100
AcDbEntity
  8
WALL
 62
     0
100
AcDbLine
 10
5.036075658559042
 20
0.0
 30
0.0
 11
5.036075658559042
 21
-1.128513190690692
 31
0.0
  0
LINE
  5
98
330
8A
100
AcDbEntity
  8
WALL
 62
     0
100
AcDbLine
 10
0.0000000000000001
 20
-0.2583250756580535
 30
0.0
 11
7.999305400829127
 21
-0.2583250756580535
 31
0.0
  0
LINE
  5
99
330
8A
100
AcDbEntity
  8
WALL
 62
     0
100
AcDbLine
 10
0.0000000000000001
 20
-0.4758721044162133
 30
0.0
 11
7.999305400829127
 21
-0.4758721044162133
 31
0.0
  0
LINE
  5
9A
330
8A
100
AcDbEntity
  8
WALL
 62
     0
100
AcDbLine
 10
0.0000000000000001
 20
-0.6934191331743732
 30
0.0
 11
7.999305400829127
 21
-0.6934191331743732
 31
0.0
  0
LINE
  5
9B
330
8A
100
AcDbEntity
  8
WALL
 62
     0
100
AcDbLine
 10
0.0000000000000001
 20
-0.9109661619325329
 30
0.0
 11
7.999305400829127
 21
-0.9109661619325329
 31
0.0
  0
MTEXT
  5
9C
330
8A
100
AcDbEntity
  8
WALL
 62
     0
100
AcDbMText
 10
0.6479282141543735
 20
-0.0875454788504601
 30
-0.0000000000000951
 40
0.0833333333333333
 41
0.0
 71
     1
 72
     1
  1
-2
  7
SLDTEXTSTYLE0
 73
     1
 44
1.0
1001
ACAD
1000
MTEXTBEGIN
1070
    73
1070
     1
1070
    44
1040
1.0
1070
    74
1070
     0
1000
MTEXTEND
  0
MTEXT
  5
9D
330
8A
100
AcDbEntity
  8
WALL
 62
     0
100
AcDbMText
 10
1.000996219323125
 20
-0.0875454788504601
 30
-0.0000000000000951
 40
0.0833333333333333
 41
0.0
 71
     1
 72
     1
  1
 BRONZE
  7
SLDTEXTSTYLE0
 73
     1
 44
1.0
1001
ACAD
1000
MTEXTBEGIN
1070
    73
1070
     1
1070
    44
1040
1.0
1070
    74
1070
     0
1000
MTEXTEND
  0
MTEXT
  5
9E
330
8A
100
AcDbEntity
  8
WALL
 62
     0
100
AcDbMText
 10
0.6170640144502422
 20
-0.3254815310585668
 30
-0.0000000000000951
 40
0.0833333333333333
 41
0.0
 71
     1
 72
     1
  1
-80
  7
SLDTEXTSTYLE0
 73
     1
 44
1.0
1001
ACAD
1000
MTEXTBEGIN
1070
    73
1070
     1
1070
    44
1040
1.0
1070
    74
1070
     0
1000
MTEXTEND
  0
MTEXT
  5
9F
330
8A
100
AcDbEntity
  8
WALL
 62
     0
100
AcDbMText
 10
1.000996219323125
 20
-0.3254815310585668
 30
-0.0000000000000951
 40
0.0833333333333333
 41
0.0
 71
     1
 72
     1
  1
 PERFORATED STAINLESS STEEL BASKET
  7
SLDTEXTSTYLE0
 73
     1
 44
1.0
1001
ACAD
1000
MTEXTBEGIN
1070
    73
1070
     1
1070
    44
1040
1.0
1070
    74
1070
     0
1000
MTEXTEND
  0
MTEXT
  5
A0
330
8A
100
AcDbEntity
  8
WALL
 62
     0
100
AcDbMText
 10
0.6510146318331464
 20
-0.5430285598167267
 30
-0.0000000000000951
 40
0.0833333333333333
 41
0.0
 71
     1
 72
     1
  1
-J
  7
SLDTEXTSTYLE0
 73
     1
 44
1.0
1001
ACAD
1000
MTEXTBEGIN
1070
    73
1070
     1
1070
    44
1040
1.0
1070
    74
1070
     0
1000
MTEXTEND
  0
MTEXT
  5
A1
330
8A
100
AcDbEntity
  8
WALL
 62
     0
100
AcDbMText
 10
1.000996219323125
 20
-0.5430285598167267
 30
-0.0000000000000951
 40
0.0833333333333333
 41
0.0
 71
     1
 72
     1
  1
 BACKWATER VALVE
  7
SLDTEXTSTYLE0
 73
     1
 44
1.0
1001
ACAD
1000
MTEXTBEGIN
1070
    73
1070
     1
1070
    44
1040
1.0
1070
    74
1070
     0
1000
MTEXTEND
  0
MTEXT
  5
A2
330
8A
100
AcDbEntity
  8
WALL
 62
     0
100
AcDbMText
 10
0.6047183345685898
 20
-0.7605755885748863
 30
-0.0000000000000951
 40
0.0833333333333333
 41
0.0
 71
     1
 72
     1
  1
-VP
  7
SLDTEXTSTYLE0
 73
     1
 44
1.0
1001
ACAD
1000
MTEXTBEGIN
1070
    73
1070
     1
1070
    44
1040
1.0
1070
    74
1070
     0
1000
MTEXTEND
  0
MTEXT
  5
A3
330
8A
100
AcDbEntity
  8
WALL
 62
     0
100
AcDbMText
 10
1.000996219323125
 20
-0.7605755885748863
 30
-0.0000000000000951
 40
0.0833333333333333
 41
0.0
 71
     1
 72
     1
  1
 SECURED GRATE, VANDAL-PROOF SCREWS
  7
SLDTEXTSTYLE0
 73
     1
 44
1.0
1001
ACAD
1000
MTEXTBEGIN
1070
    73
1070
     1
1070
    44
1040
1.0
1070
    74
1070
     0
1000
MTEXTEND
  0
ENDBLK
  5
8C
330
8A
100
AcDbEntity
  8
0
100
AcDbBlockEnd
  0
BLOCK
  5
27A
330
279
100
AcDbEntity
  8
0
100
AcDbBlockBegin
  2
*D4
 70
     1
 10
0.0
 20
0.0
 30
0.0
  3
*D4
  1

  0
SOLID
  5
27C
330
279
100
AcDbEntity
  8
WALL
100
AcDbTrace
 10
1.295064132255977
 20
9.2002933414535
 30
0.0
 11
1.275064132255977
 21
9.080293341453501
 31
0.0
 12
1.315064132255977
 22
9.080293341453501
 32
0.0
 13
1.315064132255977
 23
9.080293341453501
 33
0.0
  0
SOLID
  5
27D
330
279
100
AcDbEntity
  8
WALL
100
AcDbTrace
 10
1.295064132255981
 20
4.491960008120166
 30
0.0
 11
1.315064132255981
 21
4.611960008120166
 31
0.0
 12
1.275064132255981
 22
4.611960008120166
 32
0.0
 13
1.275064132255981
 23
4.611960008120166
 33
0.0
  0
LINE
  5
27E
330
279
100
AcDbEntity
  8
WALL
100
AcDbLine
 10
3.378397465589312
 20
9.200293341453503
 30
0.0
 11
1.170064132255977
 21
9.2002933414535
 31
0.0
  0
LINE
  5
27F
330
279
100
AcDbEntity
  8
WALL
100
AcDbLine
 10
3.378397465589312
 20
4.491960008120168
 30
0.0
 11
1.170064132255981
 21
4.491960008120166
 31
0.0
  0
LINE
  5
280
330
279
100
AcDbEntity
  8
WALL
100
AcDbLine
 10
1.295064132255977
 20
9.2002933414535
 30
0.0
 11
1.295064132255978
 21
7.032397807551754
 31
0.0
  0
LINE
  5
281
330
279
100
AcDbEntity
  8
WALL
100
AcDbLine
 10
1.295064132255981
 20
4.491960008120166
 30
0.0
 11
1.295064132255979
 21
6.659855542021914
 31
0.0
  0
MTEXT
  5
282
330
279
100
AcDbEntity
  8
WALL
100
AcDbMText
 10
1.058979479393616
 20
7.007260142258328
 30
-0.0000000000000486
 40
0.125
 41
0.0
 71
     1
 72
     1
  1
14-1/8
  7
SLDTEXTSTYLE0
 73
     1
 44
1.0
1001
ACAD
1000
MTEXTBEGIN
1070
    73
1070
     1
1070
    44
1040
1.0
1070
    74
1070
     0
1000
MTEXTEND
  0
MTEXT
  5
283
330
279
100
AcDbEntity
  8
WALL
100
AcDbMText
 10
0.9588512516226053
 20
6.820989009493406
 30
-0.0000000000000473
 40
0.125
 41
0.0
 71
     1
 72
     1
  1
SQUARE
  7
SLDTEXTSTYLE0
 73
     1
 44
1.0
1001
ACAD
1000
MTEXTBEGIN
1070
    73
1070
     1
1070
    44
1040
1.0
1070
    74
1070
     0
1000
MTEXTEND
  0
ENDBLK
  5
27B
330
279
100
AcDbEntity
  8
0
100
AcDbBlockEnd
  0
BLOCK
  5
286
330
285
100
AcDbEntity
  8
0
100
AcDbBlockBegin
  2
*D5
 70
     1
 10
0.0
 20
0.0
 30
0.0
  3
*D5
  1

  0
SOLID
  5
288
330
285
100
AcDbEntity
  8
WALL
100
AcDbTrace
 10
5.47214746558931
 20
8.322082825822164
 30
0.0
 11
5.35214746558931
 21
8.342082825822163
 31
0.0
 12
5.35214746558931
 22
8.302082825822164
 32
0.0
 13
5.35214746558931
 23
8.302082825822164
 33
0.0
  0
SOLID
  5
289
330
285
100
AcDbEntity
  8
WALL
100
AcDbTrace
 10
3.451314132255977
 20
8.322082825822164
 30
0.0
 11
3.571314132255977
 21
8.302082825822164
 31
0.0
 12
3.571314132255977
 22
8.342082825822163
 32
0.0
 13
3.571314132255977
 23
8.342082825822163
 33
0.0
  0
LINE
  5
28A
330
285
100
AcDbEntity
  8
WALL
100
AcDbLine
 10
5.47214746558931
 20
7.919043341453502
 30
0.0
 11
5.47214746558931
 21
8.447082825822164
 31
0.0
  0
LINE
  5
28B
330
285
100
AcDbEntity
  8
WALL
100
AcDbLine
 10
3.451314132255977
 20
7.919043341453502
 30
0.0
 11
3.451314132255977
 21
8.447082825822164
 31
0.0
  0
LINE
  5
28C
330
285
100
AcDbEntity
  8
WALL
100
AcDbLine
 10
5.47214746558931
 20
8.322082825822164
 30
0.0
 11
4.876068679556018
 21
8.322082825822164
 31
0.0
  0
LINE
  5
28D
330
285
100
AcDbEntity
  8
WALL
100
AcDbLine
 10
3.451314132255977
 20
8.322082825822164
 30
0.0
 11
4.047392918289269
 21
8.322082825822164
 31
0.0
  0
MTEXT
  5
28E
330
285
100
AcDbEntity
  8
WALL
100
AcDbMText
 10
4.225646146060281
 20
8.576351859676117
 30
-0.0000000000000595
 40
0.125
 41
0.0
 71
     1
 72
     1
  1
6-1/16
  7
SLDTEXTSTYLE0
 73
     1
 44
1.0
1001
ACAD
1000
MTEXTBEGIN
1070
    73
1070
     1
1070
    44
1040
1.0
1070
    74
1070
     0
1000
MTEXTEND
  0
MTEXT
  5
28F
330
285
100
AcDbEntity
  8
WALL
100
AcDbMText
 10
4.125517918289268
 20
8.390080726911197
 30
-0.0000000000000582
 40
0.125
 41
0.0
 71
     1
 72
     1
  1
SQUARE
  7
SLDTEXTSTYLE0
 73
     1
 44
1.0
1001
ACAD
1000
MTEXTBEGIN
1070
    73
1070
     1
1070
    44
1040
1.0
1070
    74
1070
     0
1000
MTEXTEND
  0
ENDBLK
  5
287
330
285
100
AcDbEntity
  8
0
100
AcDbBlockEnd
  0
BLOCK
  5
292
330
291
100
AcDbEntity
  8
0
100
AcDbBlockBegin
  2
*D6
 70
     1
 10
0.0
 20
0.0
 30
0.0
  3
*D6
  1

  0
SOLID
  5
294
330
291
100
AcDbEntity
  8
WALL
100
AcDbTrace
 10
3.524230798922651
 20
5.264216675866117
 30
0.0
 11
3.644230798922652
 21
5.24421667586612
 31
0.0
 12
3.644230798922651
 22
5.284216675866119
 32
0.0
 13
3.644230798922651
 23
5.284216675866119
 33
0.0
  0
SOLID
  5
295
330
291
100
AcDbEntity
  8
WALL
100
AcDbTrace
 10
5.39923079892265
 20
5.264216675866137
 30
0.0
 11
5.27923079892265
 21
5.284216675866135
 31
0.0
 12
5.27923079892265
 22
5.244216675866136
 32
0.0
 13
5.27923079892265
 23
5.244216675866136
 33
0.0
  0
LINE
  5
296
330
291
100
AcDbEntity
  8
WALL
100
AcDbLine
 10
3.524230798922645
 20
5.865595701968145
 30
0.0
 11
3.524230798922653
 21
5.139216675866117
 31
0.0
  0
LINE
  5
297
330
291
100
AcDbEntity
  8
WALL
100
AcDbLine
 10
5.399230798922643
 20
5.865595701968145
 30
0.0
 11
5.399230798922651
 21
5.139216675866137
 31
0.0
  0
LINE
  5
298
330
291
100
AcDbEntity
  8
WALL
100
AcDbLine
 10
3.524230798922651
 20
5.264216675866117
 30
0.0
 11
4.047392918289277
 21
5.264216675866123
 31
0.0
  0
LINE
  5
299
330
291
100
AcDbEntity
  8
WALL
100
AcDbLine
 10
5.39923079892265
 20
5.264216675866137
 30
0.0
 11
4.876068679556025
 21
5.264216675866132
 31
0.0
  0
MTEXT
  5
29A
330
291
100
AcDbEntity
  8
WALL
100
AcDbMText
 10
4.225646146060289
 20
5.518485709720083
 30
-0.0000000000000382
 40
0.125
 41
0.0
 71
     1
 72
     1
  1
5-9/16
  7
SLDTEXTSTYLE0
 73
     1
 44
1.0
1001
ACAD
1000
MTEXTBEGIN
1070
    73
1070
     1
1070
    44
1040
1.0
1070
    74
1070
     0
1000
MTEXTEND
  0
MTEXT
  5
29B
330
291
100
AcDbEntity
  8
WALL
100
AcDbMText
 10
4.125517918289277
 20
5.332214576955163
 30
-0.0000000000000369
 40
0.125
 41
0.0
 71
     1
 72
     1
  1
SQUARE
  7
SLDTEXTSTYLE0
 73
     1
 44
1.0
1001
ACAD
1000
MTEXTBEGIN
1070
    73
1070
     1
1070
    44
1040
1.0
1070
    74
1070
     0
1000
MTEXTEND
  0
ENDBLK
  5
293
330
291
100
AcDbEntity
  8
0
100
AcDbBlockEnd
  0
BLOCK
  5
390
330
38F
100
AcDbEntity
  8
0
100
AcDbBlockBegin
  2
*D7
 70
     1
 10
0.0
 20
0.0
 30
0.0
  3
*D7
  1

  0
SOLID
  5
392
330
38F
100
AcDbEntity
  8
WALL
100
AcDbTrace
 10
3.250794515104811
 20
3.550921500594628
 30
0.0
 11
3.270794515104811
 21
3.670921500594628
 31
0.0
 12
3.230794515104811
 22
3.670921500594628
 32
0.0
 13
3.230794515104811
 23
3.670921500594628
 33
0.0
  0
SOLID
  5
393
330
38F
100
AcDbEntity
  8
WALL
100
AcDbTrace
 10
3.250794515104811
 20
3.467588167261294
 30
0.0
 11
3.230794515104811
 21
3.347588167261294
 31
0.0
 12
3.270794515104811
 22
3.347588167261294
 32
0.0
 13
3.270794515104811
 23
3.347588167261294
 33
0.0
  0
LINE
  5
394
330
38F
100
AcDbEntity
  8
WALL
100
AcDbLine
 10
3.388814132255977
 20
3.550921500594628
 30
0.0
 11
3.125794515104812
 21
3.550921500594628
 31
0.0
  0
LINE
  5
395
330
38F
100
AcDbEntity
  8
WALL
100
AcDbLine
 10
3.125794515104812
 20
3.800921828678617
 30
0.0
 11
3.250794515104811
 21
3.800921828678617
 31
0.0
  0
LINE
  5
396
330
38F
100
AcDbEntity
  8
WALL
100
AcDbLine
 10
3.250794515104811
 20
3.800921828678617
 30
0.0
 11
3.250794515104811
 21
3.550921500594628
 31
0.0
  0
LINE
  5
397
330
38F
100
AcDbEntity
  8
WALL
100
AcDbLine
 10
3.250794515104811
 20
3.467588167261294
 30
0.0
 11
3.250794515104811
 21
3.280088167261294
 31
0.0
  0
MTEXT
  5
398
330
38F
100
AcDbEntity
  8
WALL
100
AcDbMText
 10
2.831924722169366
 20
3.868919729767651
 30
-0.0000000000000267
 40
0.125
 41
0.0
 71
     1
 72
     1
  1
1/4
  7
SLDTEXTSTYLE0
 73
     1
 44
1.0
1001
ACAD
1000
MTEXTBEGIN
1070
    73
1070
     1
1070
    44
1040
1.0
1070
    74
1070
     0
1000
MTEXTEND
  0
ENDBLK
  5
391
330
38F
100
AcDbEntity
  8
0
100
AcDbBlockEnd
  0
BLOCK
  5
39B
330
39A
100
AcDbEntity
  8
0
100
AcDbBlockBegin
  2
*D8
 70
     1
 10
0.0
 20
0.0
 30
0.0
  3
*D8
  1

  0
SOLID
  5
39D
330
39A
100
AcDbEntity
  8
WALL
100
AcDbTrace
 10
1.752968729726269
 20
3.467588167261294
 30
0.0
 11
1.732968729726269
 21
3.347588167261294
 31
0.0
 12
1.772968729726269
 22
3.347588167261294
 32
0.0
 13
1.772968729726269
 23
3.347588167261294
 33
0.0
  0
SOLID
  5
39E
330
39A
100
AcDbEntity
  8
WALL
100
AcDbTrace
 10
1.752968729726269
 20
2.759254833927961
 30
0.0
 11
1.772968729726269
 21
2.879254833927961
 31
0.0
 12
1.732968729726269
 22
2.879254833927961
 32
0.0
 13
1.732968729726269
 23
2.879254833927961
 33
0.0
  0
LINE
  5
39F
330
39A
100
AcDbEntity
  8
WALL
100
AcDbLine
 10
2.045064132255979
 20
3.467588167261294
 30
0.0
 11
1.627968729726269
 21
3.467588167261294
 31
0.0
  0
LINE
  5
3A0
330
39A
100
AcDbEntity
  8
WALL
100
AcDbLine
 10
3.795066879650775
 20
2.759254833927961
 30
0.0
 11
1.627968729726269
 21
2.759254833927961
 31
0.0
  0
LINE
  5
3A1
330
39A
100
AcDbEntity
  8
WALL
100
AcDbLine
 10
1.752968729726269
 20
3.467588167261294
 30
0.0
 11
1.752968729726269
 21
3.206557066977087
 31
0.0
  0
LINE
  5
3A2
330
39A
100
AcDbEntity
  8
WALL
100
AcDbLine
 10
1.752968729726269
 20
2.759254833927961
 30
0.0
 11
1.752968729726269
 21
3.020285934212167
 31
0.0
  0
MTEXT
  5
3A3
330
39A
100
AcDbEntity
  8
WALL
100
AcDbMText
 10
1.563212700493626
 20
3.181419401683661
 30
-0.0000000000000219
 40
0.125
 41
0.0
 71
     1
 72
     1
  1
2-1/8
  7
SLDTEXTSTYLE0
 73
     1
 44
1.0
1001
ACAD
1000
MTEXTBEGIN
1070
    73
1070
     1
1070
    44
1040
1.0
1070
    74
1070
     0
1000
MTEXTEND
  0
ENDBLK
  5
39C
330
39A
100
AcDbEntity
  8
0
100
AcDbBlockEnd
  0
BLOCK
  5
3A6
330
3A5
100
AcDbEntity
  8
0
100
AcDbBlockBegin
  2
*D9
 70
     1
 10
0.0
 20
0.0
 30
0.0
  3
*D9
  1

  0
SOLID
  5
3A8
330
3A5
100
AcDbEntity
  8
WALL
100
AcDbTrace
 10
5.328445439343717
 20
3.181129833927961
 30
0.0
 11
5.308445439343717
 21
3.061129833927961
 31
0.0
 12
5.348445439343716
 22
3.061129833927961
 32
0.0
 13
5.348445439343716
 23
3.061129833927961
 33
0.0
  0
SOLID
  5
3A9
330
3A5
100
AcDbEntity
  8
WALL
100
AcDbTrace
 10
5.328445439343717
 20
2.759254833927961
 30
0.0
 11
5.348445439343716
 21
2.879254833927961
 31
0.0
 12
5.308445439343717
 22
2.879254833927961
 32
0.0
 13
5.308445439343717
 23
2.879254833927961
 33
0.0
  0
LINE
  5
3AA
330
3A5
100
AcDbEntity
  8
WALL
100
AcDbLine
 10
5.149228143108069
 20
3.181129833927961
 30
0.0
 11
5.453445439343717
 21
3.181129833927961
 31
0.0
  0
LINE
  5
3AB
330
3A5
100
AcDbEntity
  8
WALL
100
AcDbLine
 10
5.128394718194512
 20
2.759254833927961
 30
0.0
 11
5.453445439343717
 21
2.759254833927961
 31
0.0
  0
LINE
  5
3AC
330
3A5
100
AcDbEntity
  8
WALL
100
AcDbLine
 10
5.453445439343717
 20
2.634602248400426
 30
0.0
 11
5.328445439343717
 21
2.634602248400426
 31
0.0
  0
LINE
  5
3AD
330
3A5
100
AcDbEntity
  8
WALL
100
AcDbLine
 10
5.328445439343717
 20
2.634602248400426
 30
0.0
 11
5.328445439343717
 21
2.759254833927961
 31
0.0
  0
LINE
  5
3AE
330
3A5
100
AcDbEntity
  8
WALL
100
AcDbLine
 10
5.328445439343717
 20
3.181129833927961
 30
0.0
 11
5.328445439343717
 21
2.759254833927961
 31
0.0
  0
MTEXT
  5
3AF
330
3A5
100
AcDbEntity
  8
WALL
100
AcDbMText
 10
5.515945439343714
 20
2.70260014948946
 30
-0.0000000000000185
 40
0.125
 41
0.0
 71
     1
 72
     1
  1
1-1/4
  7
SLDTEXTSTYLE0
 73
     1
 44
1.0
1001
ACAD
1000
MTEXTBEGIN
1070
    73
1070
     1
1070
    44
1040
1.0
1070
    74
1070
     0
1000
MTEXTEND
  0
ENDBLK
  5
3A7
330
3A5
100
AcDbEntity
  8
0
100
AcDbBlockEnd
  0
BLOCK
  5
3B2
330
3B1
100
AcDbEntity
  8
0
100
AcDbBlockBegin
  2
*D10
 70
     1
 10
0.0
 20
0.0
 30
0.0
  3
*D10
  1

  0
SOLID
  5
3B4
330
3B1
100
AcDbEntity
  8
WALL
100
AcDbTrace
 10
3.83673345473722
 20
2.405740943756033
 30
0.0
 11
3.95673345473722
 21
2.385740943756033
 31
0.0
 12
3.95673345473722
 22
2.425740943756033
 32
0.0
 13
3.95673345473722
 23
2.425740943756033
 33
0.0
  0
SOLID
  5
3B5
330
3B1
100
AcDbEntity
  8
WALL
100
AcDbTrace
 10
5.086728143108069
 20
2.405740943756033
 30
0.0
 11
4.966728143108069
 21
2.425740943756033
 31
0.0
 12
4.966728143108069
 22
2.385740943756033
 32
0.0
 13
4.966728143108069
 23
2.385740943756033
 33
0.0
  0
LINE
  5
3B6
330
3B1
100
AcDbEntity
  8
WALL
100
AcDbLine
 10
3.83673345473722
 20
2.717588167261294
 30
0.0
 11
3.83673345473722
 21
2.280740943756033
 31
0.0
  0
LINE
  5
3B7
330
3B1
100
AcDbEntity
  8
WALL
100
AcDbLine
 10
5.086728143108069
 20
2.717588167261294
 30
0.0
 11
5.086728143108069
 21
2.280740943756033
 31
0.0
  0
LINE
  5
3B8
330
3B1
100
AcDbEntity
  8
WALL
100
AcDbLine
 10
3.83673345473722
 20
2.405740943756033
 30
0.0
 11
4.095976474927515
 21
2.405740943756033
 31
0.0
  0
LINE
  5
3B9
330
3B1
100
AcDbEntity
  8
WALL
100
AcDbLine
 10
5.086728143108069
 20
2.405740943756033
 30
0.0
 11
4.827485122917772
 21
2.405740943756033
 31
0.0
  0
MTEXT
  5
3BA
330
3B1
100
AcDbEntity
  8
WALL
100
AcDbMText
 10
4.158476474927516
 20
2.473738844845068
 30
-0.0000000000000169
 40
0.125
 41
0.0
 71
     1
 72
     1
  1
%%c
  7
SLDTEXTSTYLE0
 73
     1
 44
1.0
1001
ACAD
1000
MTEXTBEGIN
1070
    73
1070
     1
1070
    44
1040
1.0
1070
    74
1070
     0
1000
MTEXTEND
  0
MTEXT
  5
3BB
330
3B1
100
AcDbEntity
  8
WALL
100
AcDbMText
 10
4.335454550445177
 20
2.473738844845068
 30
-0.0000000000000169
 40
0.125
 41
0.0
 71
     1
 72
     1
  1
3 3/4"
  7
SLDTEXTSTYLE0
 73
     1
 44
1.0
1001
ACAD
1000
MTEXTBEGIN
1070
    73
1070
     1
1070
    44
1040
1.0
1070
    74
1070
     0
1000
MTEXTEND
  0
ENDBLK
  5
3B3
330
3B1
100
AcDbEntity
  8
0
100
AcDbBlockEnd
  0
BLOCK
  5
3BD
330
3BC
100
AcDbEntity
  8
0
100
AcDbBlockBegin
  2
SW_NOTE_2
 70
     0
 10
0.0
 20
0.0
 30
0.0
  3
SW_NOTE_2
  1

  0
MTEXT
  5
3BF
330
3BC
100
AcDbEntity
  8
WALL
 62
     0
100
AcDbMText
 10
0.0197767414787019
 20
0.0601050596668027
 30
0.0
 40
0.125
 41
0.0
 71
     1
 72
     1
  1
GRATE FREE AREA
  7
SLDTEXTSTYLE0
 73
     1
 44
1.0
1001
ACAD
1000
MTEXTBEGIN
1070
    73
1070
     1
1070
    44
1040
1.0
1070
    74
1070
     0
1000
MTEXTEND
  0
MTEXT
  5
3C0
330
3BC
100
AcDbEntity
  8
WALL
 62
     0
100
AcDbMText
 10
0.0197767414787019
 20
-0.106561604985665
 30
0.0
 40
0.125
 41
0.0
 71
     1
 72
     1
  1
13.8 SQ. IN.
  7
SLDTEXTSTYLE0
 73
     1
 44
1.0
1001
ACAD
1000
MTEXTBEGIN
1070
    73
1070
     1
1070
    44
1040
1.0
1070
    74
1070
     0
1000
MTEXTEND
  0
ENDBLK
  5
3BE
330
3BC
100
AcDbEntity
  8
0
100
AcDbBlockEnd
  0
ENDSEC
  0
SECTION
  2
ENTITIES
  0
CIRCLE
  5
A5
330
1F
100
AcDbEntity
  8
0
  6
Continuous
 62
     7
370
     5
100
AcDbCircle
 10
3.628397465589311
 20
7.679460008120169
 30
0.0
 40
0.0598333333333336
  0
LINE
  5
A6
330
1F
100
AcDbEntity
  8
0
  6
Continuous
 62
     7
370
     5
100
AcDbLine
 10
3.620897465589311
 20
7.637793341453501
 30
0.0
 11
3.635897465589311
 21
7.637793341453501
 31
0.0
  0
LINE
  5
A7
330
1F
100
AcDbEntity
  8
0
  6
Continuous
 62
     7
370
     5
100
AcDbLine
 10
3.635897465589311
 20
7.637793341453501
 30
0.0
 11
3.635897465589312
 21
7.671960008120168
 31
0.0
  0
LINE
  5
A8
330
1F
100
AcDbEntity
  8
0
  6
Continuous
 62
     7
370
     5
100
AcDbLine
 10
3.635897465589312
 20
7.671960008120168
 30
0.0
 11
3.670064132255977
 21
7.671960008120168
 31
0.0
  0
LINE
  5
A9
330
1F
100
AcDbEntity
  8
0
  6
Continuous
 62
     7
370
     5
100
AcDbLine
 10
3.670064132255977
 20
7.671960008120168
 30
0.0
 11
3.670064132255978
 21
7.686960008120168
 31
0.0
  0
LINE
  5
AA
330
1F
100
AcDbEntity
  8
0
  6
Continuous
 62
     7
370
     5
100
AcDbLine
 10
3.670064132255978
 20
7.686960008120168
 30
0.0
 11
3.635897465589311
 21
7.686960008120168
 31
0.0
  0
LINE
  5
AB
330
1F
100
AcDbEntity
  8
0
  6
Continuous
 62
     7
370
     5
100
AcDbLine
 10
3.635897465589311
 20
7.686960008120168
 30
0.0
 11
3.635897465589311
 21
7.721126674786835
 31
0.0
  0
LINE
  5
AC
330
1F
100
AcDbEntity
  8
0
  6
Continuous
 62
     7
370
     5
100
AcDbLine
 10
3.635897465589311
 20
7.721126674786835
 30
0.0
 11
3.620897465589311
 21
7.721126674786834
 31
0.0
  0
LINE
  5
AD
330
1F
100
AcDbEntity
  8
0
  6
Continuous
 62
     7
370
     5
100
AcDbLine
 10
3.620897465589311
 20
7.721126674786834
 30
0.0
 11
3.620897465589311
 21
7.686960008120168
 31
0.0
  0
LINE
  5
AE
330
1F
100
AcDbEntity
  8
0
  6
Continuous
 62
     7
370
     5
100
AcDbLine
 10
3.620897465589311
 20
7.686960008120168
 30
0.0
 11
3.586730798922644
 21
7.686960008120168
 31
0.0
  0
LINE
  5
AF
330
1F
100
AcDbEntity
  8
0
  6
Continuous
 62
     7
370
     5
100
AcDbLine
 10
3.586730798922644
 20
7.686960008120168
 30
0.0
 11
3.586730798922646
 21
7.671960008120168
 31
0.0
  0
LINE
  5
B0
330
1F
100
AcDbEntity
  8
0
  6
Continuous
 62
     7
370
     5
100
AcDbLine
 10
3.586730798922646
 20
7.671960008120168
 30
0.0
 11
3.620897465589312
 21
7.671960008120167
 31
0.0
  0
LINE
  5
B1
330
1F
100
AcDbEntity
  8
0
  6
Continuous
 62
     7
370
     5
100
AcDbLine
 10
3.620897465589312
 20
7.671960008120167
 30
0.0
 11
3.620897465589311
 21
7.637793341453501
 31
0.0
  0
LINE
  5
B2
330
1F
100
AcDbEntity
  8
0
  6
Continuous
 62
     7
370
     5
100
AcDbLine
 10
5.253397465589313
 20
7.686960008120165
 30
0.0
 11
5.253397465589313
 21
7.671960008120165
 31
0.0
  0
LINE
  5
B3
330
1F
100
AcDbEntity
  8
0
  6
Continuous
 62
     7
370
     5
100
AcDbLine
 10
5.253397465589313
 20
7.671960008120165
 30
0.0
 11
5.28756413225598
 21
7.671960008120165
 31
0.0
  0
LINE
  5
B4
330
1F
100
AcDbEntity
  8
0
  6
Continuous
 62
     7
370
     5
100
AcDbLine
 10
5.28756413225598
 20
7.671960008120165
 30
0.0
 11
5.28756413225598
 21
7.637793341453499
 31
0.0
  0
LINE
  5
B5
330
1F
100
AcDbEntity
  8
0
  6
Continuous
 62
     7
370
     5
100
AcDbLine
 10
5.28756413225598
 20
7.637793341453499
 30
0.0
 11
5.30256413225598
 21
7.637793341453498
 31
0.0
  0
LINE
  5
B6
330
1F
100
AcDbEntity
  8
0
  6
Continuous
 62
     7
370
     5
100
AcDbLine
 10
5.30256413225598
 20
7.637793341453498
 30
0.0
 11
5.30256413225598
 21
7.671960008120166
 31
0.0
  0
LINE
  5
B7
330
1F
100
AcDbEntity
  8
0
  6
Continuous
 62
     7
370
     5
100
AcDbLine
 10
5.30256413225598
 20
7.671960008120166
 30
0.0
 11
5.336730798922647
 21
7.671960008120165
 31
0.0
  0
LINE
  5
B8
330
1F
100
AcDbEntity
  8
0
  6
Continuous
 62
     7
370
     5
100
AcDbLine
 10
5.336730798922647
 20
7.671960008120165
 30
0.0
 11
5.336730798922646
 21
7.686960008120164
 31
0.0
  0
LINE
  5
B9
330
1F
100
AcDbEntity
  8
0
  6
Continuous
 62
     7
370
     5
100
AcDbLine
 10
5.336730798922646
 20
7.686960008120164
 30
0.0
 11
5.30256413225598
 21
7.686960008120164
 31
0.0
  0
LINE
  5
BA
330
1F
100
AcDbEntity
  8
0
  6
Continuous
 62
     7
370
     5
100
AcDbLine
 10
5.30256413225598
 20
7.686960008120164
 30
0.0
 11
5.302564132255981
 21
7.721126674786832
 31
0.0
  0
LINE
  5
BB
330
1F
100
AcDbEntity
  8
0
  6
Continuous
 62
     7
370
     5
100
AcDbLine
 10
5.302564132255981
 20
7.721126674786832
 30
0.0
 11
5.28756413225598
 21
7.721126674786832
 31
0.0
  0
LINE
  5
BC
330
1F
100
AcDbEntity
  8
0
  6
Continuous
 62
     7
370
     5
100
AcDbLine
 10
5.28756413225598
 20
7.721126674786832
 30
0.0
 11
5.28756413225598
 21
7.686960008120164
 31
0.0
  0
LINE
  5
BD
330
1F
100
AcDbEntity
  8
0
  6
Continuous
 62
     7
370
     5
100
AcDbLine
 10
5.28756413225598
 20
7.686960008120164
 30
0.0
 11
5.253397465589313
 21
7.686960008120165
 31
0.0
  0
CIRCLE
  5
BE
330
1F
100
AcDbEntity
  8
0
  6
Continuous
 62
     7
370
     5
100
AcDbCircle
 10
5.295064132255981
 20
7.679460008120165
 30
0.0
 40
0.0598333333333336
  0
CIRCLE
  5
BF
330
1F
100
AcDbEntity
  8
0
  6
Continuous
 62
     7
370
     5
100
AcDbCircle
 10
3.628397465589302
 20
6.01279334145351
 30
0.0
 40
0.0598333333333336
  0
LINE
  5
C0
330
1F
100
AcDbEntity
  8
0
  6
Continuous
 62
     7
370
     5
100
AcDbLine
 10
3.67006413225597
 20
6.00529334145351
 30
0.0
 11
3.67006413225597
 21
6.02029334145351
 31
0.0
  0
LINE
  5
C1
330
1F
100
AcDbEntity
  8
0
  6
Continuous
 62
     7
370
     5
100
AcDbLine
 10
3.67006413225597
 20
6.02029334145351
 30
0.0
 11
3.635897465589303
 21
6.020293341453511
 31
0.0
  0
LINE
  5
C2
330
1F
100
AcDbEntity
  8
0
  6
Continuous
 62
     7
370
     5
100
AcDbLine
 10
3.635897465589303
 20
6.020293341453511
 30
0.0
 11
3.635897465589303
 21
6.054460008120178
 31
0.0
  0
LINE
  5
C3
330
1F
100
AcDbEntity
  8
0
  6
Continuous
 62
     7
370
     5
100
AcDbLine
 10
3.635897465589303
 20
6.054460008120178
 30
0.0
 11
3.620897465589303
 21
6.054460008120178
 31
0.0
  0
LINE
  5
C4
330
1F
100
AcDbEntity
  8
0
  6
Continuous
 62
     7
370
     5
100
AcDbLine
 10
3.620897465589303
 20
6.054460008120178
 30
0.0
 11
3.620897465589302
 21
6.02029334145351
 31
0.0
  0
LINE
  5
C5
330
1F
100
AcDbEntity
  8
0
  6
Continuous
 62
     7
370
     5
100
AcDbLine
 10
3.620897465589302
 20
6.02029334145351
 30
0.0
 11
3.586730798922636
 21
6.020293341453511
 31
0.0
  0
LINE
  5
C6
330
1F
100
AcDbEntity
  8
0
  6
Continuous
 62
     7
370
     5
100
AcDbLine
 10
3.586730798922636
 20
6.020293341453511
 30
0.0
 11
3.586730798922637
 21
6.00529334145351
 31
0.0
  0
LINE
  5
C7
330
1F
100
AcDbEntity
  8
0
  6
Continuous
 62
     7
370
     5
100
AcDbLine
 10
3.586730798922637
 20
6.00529334145351
 30
0.0
 11
3.620897465589303
 21
6.00529334145351
 31
0.0
  0
LINE
  5
C8
330
1F
100
AcDbEntity
  8
0
  6
Continuous
 62
     7
370
     5
100
AcDbLine
 10
3.620897465589303
 20
6.00529334145351
 30
0.0
 11
3.620897465589302
 21
5.971126674786843
 31
0.0
  0
LINE
  5
C9
330
1F
100
AcDbEntity
  8
0
  6
Continuous
 62
     7
370
     5
100
AcDbLine
 10
3.620897465589302
 20
5.971126674786843
 30
0.0
 11
3.635897465589302
 21
5.971126674786845
 31
0.0
  0
LINE
  5
CA
330
1F
100
AcDbEntity
  8
0
  6
Continuous
 62
     7
370
     5
100
AcDbLine
 10
3.635897465589302
 20
5.971126674786845
 30
0.0
 11
3.635897465589303
 21
6.005293341453511
 31
0.0
  0
LINE
  5
CB
330
1F
100
AcDbEntity
  8
0
  6
Continuous
 62
     7
370
     5
100
AcDbLine
 10
3.635897465589303
 20
6.005293341453511
 30
0.0
 11
3.67006413225597
 21
6.00529334145351
 31
0.0
  0
CIRCLE
  5
CC
330
1F
100
AcDbEntity
  8
0
  6
Continuous
 62
     7
370
     5
100
AcDbCircle
 10
5.295064132255972
 20
6.012793341453495
 30
0.0
 40
0.0598333333333336
  0
LINE
  5
CD
330
1F
100
AcDbEntity
  8
0
  6
Continuous
 62
     7
370
     5
100
AcDbLine
 10
5.302564132255972
 20
6.054460008120163
 30
0.0
 11
5.287564132255972
 21
6.054460008120163
 31
0.0
  0
LINE
  5
CE
330
1F
100
AcDbEntity
  8
0
  6
Continuous
 62
     7
370
     5
100
AcDbLine
 10
5.287564132255972
 20
6.054460008120163
 30
0.0
 11
5.287564132255971
 21
6.020293341453496
 31
0.0
  0
LINE
  5
CF
330
1F
100
AcDbEntity
  8
0
  6
Continuous
 62
     7
370
     5
100
AcDbLine
 10
5.287564132255971
 20
6.020293341453496
 30
0.0
 11
5.253397465589306
 21
6.020293341453496
 31
0.0
  0
LINE
  5
D0
330
1F
100
AcDbEntity
  8
0
  6
Continuous
 62
     7
370
     5
100
AcDbLine
 10
5.253397465589306
 20
6.020293341453496
 30
0.0
 11
5.253397465589305
 21
6.005293341453496
 31
0.0
  0
LINE
  5
D1
330
1F
100
AcDbEntity
  8
0
  6
Continuous
 62
     7
370
     5
100
AcDbLine
 10
5.253397465589305
 20
6.005293341453496
 30
0.0
 11
5.287564132255972
 21
6.005293341453496
 31
0.0
  0
LINE
  5
D2
330
1F
100
AcDbEntity
  8
0
  6
Continuous
 62
     7
370
     5
100
AcDbLine
 10
5.287564132255972
 20
6.005293341453496
 30
0.0
 11
5.287564132255972
 21
5.971126674786829
 31
0.0
  0
LINE
  5
D3
330
1F
100
AcDbEntity
  8
0
  6
Continuous
 62
     7
370
     5
100
AcDbLine
 10
5.287564132255972
 20
5.971126674786829
 30
0.0
 11
5.302564132255971
 21
5.97112667478683
 31
0.0
  0
LINE
  5
D4
330
1F
100
AcDbEntity
  8
0
  6
Continuous
 62
     7
370
     5
100
AcDbLine
 10
5.302564132255971
 20
5.97112667478683
 30
0.0
 11
5.302564132255971
 21
6.005293341453496
 31
0.0
  0
LINE
  5
D5
330
1F
100
AcDbEntity
  8
0
  6
Continuous
 62
     7
370
     5
100
AcDbLine
 10
5.302564132255971
 20
6.005293341453496
 30
0.0
 11
5.336730798922639
 21
6.005293341453495
 31
0.0
  0
LINE
  5
D6
330
1F
100
AcDbEntity
  8
0
  6
Continuous
 62
     7
370
     5
100
AcDbLine
 10
5.336730798922639
 20
6.005293341453495
 30
0.0
 11
5.336730798922637
 21
6.020293341453496
 31
0.0
  0
LINE
  5
D7
330
1F
100
AcDbEntity
  8
0
  6
Continuous
 62
     7
370
     5
100
AcDbLine
 10
5.336730798922637
 20
6.020293341453496
 30
0.0
 11
5.302564132255971
 21
6.020293341453497
 31
0.0
  0
LINE
  5
D8
330
1F
100
AcDbEntity
  8
0
  6
Continuous
 62
     7
370
     5
100
AcDbLine
 10
5.302564132255971
 20
6.020293341453497
 30
0.0
 11
5.302564132255972
 21
6.054460008120163
 31
0.0
  0
LINE
  5
D9
330
1F
100
AcDbEntity
  8
0
  6
Continuous
 62
     7
370
     5
100
AcDbLine
 10
4.438025728536216
 20
7.711386973017399
 30
0.0
 11
4.444204972955162
 21
7.711386603788388
 31
0.0
  0
SPLINE
  5
DA
330
1F
100
AcDbEntity
  8
0
  6
Continuous
 62
     7
370
     5
100
AcDbSpline
210
0.0
220
0.0
230
1.0
 70
     8
 71
     3
 72
    14
 73
    10
 74
     0
 42
0.0000000001
 43
0.0000000001
 40
0.0
 40
0.0
 40
0.0
 40
0.0
 40
0.140122753961576
 40
0.2802102603863768
 40
0.419994263696381
 40
0.5598535359491637
 40
0.7064988888445402
 40
0.8532304579746449
 40
1.0
 40
1.0
 40
1.0
 40
1.0
 10
4.444204972955162
 20
7.711386603788388
 30
0.0
 10
4.44431678110961
 20
7.710559728102331
 30
0.0
 10
4.444540369293438
 20
7.708906184728776
 30
0.0
 10
4.445320774961436
 20
7.706514064666841
 30
0.0
 10
4.446658666230564
 20
7.7043633725289
 30
0.0
 10
4.448631513096939
 20
7.70271674702855
 30
0.0
 10
4.450939634826597
 20
7.701539847684973
 30
0.0
 10
4.453483688780054
 20
7.700825187317324
 30
0.0
 10
4.455232089238615
 20
7.700750167169767
 30
0.0
 10
4.456106402571091
 20
7.700712652242969
 30
0.0
  0
SPLINE
  5
DB
330
1F
100
AcDbEntity
  8
0
  6
Continuous
 62
     7
370
     5
100
AcDbSpline
210
0.0
220
0.0
230
1.0
 70
     8
 71
     3
 72
    13
 73
     9
 74
     0
 42
0.0000000001
 43
0.0000000001
 40
0.0
 40
0.0
 40
0.0
 40
0.0
 40
0.1868875226276733
 40
0.3736712853340308
 40
0.5602389491756118
 40
0.7067843140973239
 40
0.8534662671334471
 40
1.0
 40
1.0
 40
1.0
 40
1.0
 10
4.456106402571091
 20
7.700712652242969
 30
0.0
 10
4.456981953664788
 20
7.700750453605403
 30
0.0
 10
4.458732569746363
 20
7.700826035342961
 30
0.0
 10
4.461276529205774
 20
7.701541543545554
 30
0.0
 10
4.463437096054033
 20
7.70274261951135
 30
0.0
 10
4.464959894232738
 20
7.704424364828277
 30
0.0
 10
4.465919527728146
 20
7.706293434946399
 30
0.0
 10
4.466048545798602
 20
7.707669452737235
 30
0.0
 10
4.466113022224593
 20
7.708357113845001
 30
0.0
  0
SPLINE
  5
DC
330
1F
100
AcDbEntity
  8
0
  6
Continuous
 62
     7
370
     5
100
AcDbSpline
210
0.0
220
0.0
230
1.0
 70
     8
 71
     3
 72
    11
 73
     7
 74
     0
 42
0.0000000001
 43
0.0000000001
 40
0.0
 40
0.0
 40
0.0
 40
0.0
 40
0.2795275789904976
 40
0.5588490635283953
 40
0.7792960287817095
 40
0.9999999999999998
 40
0.9999999999999998
 40
0.9999999999999998
 40
0.9999999999999998
 10
4.466113022224593
 20
7.708357113845001
 30
0.0
 10
4.466042522408182
 20
7.709114097962856
 30
0.0
 10
4.465901574754561
 20
7.710627508077511
 30
0.0
 10
4.464643741961216
 20
7.712409362930665
 30
0.0
 10
4.463070019716426
 20
7.713553153651609
 30
0.0
 10
4.461986105769154
 20
7.714033169473855
 30
0.0
 10
4.461443833061914
 20
7.714273317208925
 30
0.0
  0
SPLINE
  5
DD
330
1F
100
AcDbEntity
  8
0
  6
Continuous
 62
     7
370
     5
100
AcDbSpline
210
0.0
220
0.0
230
1.0
 70
     8
 71
     3
 72
    11
 73
     7
 74
     0
 42
0.0000000001
 43
0.0000000001
 40
0.0
 40
0.0
 40
0.0
 40
0.0
 40
0.2799437429837464
 40
0.5600414115400442
 40
0.7800906928705956
 40
1.0
 40
1.0
 40
1.0
 40
1.0
 10
4.461443833061914
 20
7.714273317208925
 30
0.0
 10
4.460021802392731
 20
7.714740276463195
 30
0.0
 10
4.457176959158393
 20
7.715674451726787
 30
0.0
 10
4.453129524833057
 20
7.716674145978554
 30
0.0
 10
4.449424797984428
 20
7.717737623423147
 30
0.0
 10
4.447261593985039
 20
7.718664703443708
 30
0.0
 10
4.446180336100403
 20
7.719128095977285
 30
0.0
  0
SPLINE
  5
DE
330
1F
100
AcDbEntity
  8
0
  6
Continuous
 62
     7
370
     5
100
AcDbSpline
210
0.0
220
0.0
230
1.0
 70
     8
 71
     3
 72
    11
 73
     7
 74
     0
 42
0.0000000001
 43
0.0000000001
 40
0.0
 40
0.0
 40
0.0
 40
0.0
 40
0.2802957267020761
 40
0.5599768903812438
 40
0.7799897284662164
 40
1.0
 40
1.0
 40
1.0
 40
1.0
 10
4.446180336100403
 20
7.719128095977285
 30
0.0
 10
4.445189856319757
 20
7.719686126915245
 30
0.0
 10
4.443211068437123
 20
7.720800965279184
 30
0.0
 10
4.441090529895273
 20
7.723218572064135
 30
0.0
 10
4.439906174190646
 20
7.725926947025212
 30
0.0
 10
4.439776728149015
 20
7.727708471049631
 30
0.0
 10
4.439712005505714
 20
7.728599227866237
 30
0.0
  0
SPLINE
  5
DF
330
1F
100
AcDbEntity
  8
0
  6
Continuous
 62
     7
370
     5
100
AcDbSpline
210
0.0
220
0.0
230
1.0
 70
     8
 71
     3
 72
    14
 73
    10
 74
     0
 42
0.0000000001
 43
0.0000000001
 40
0.0
 40
0.0
 40
0.0
 40
0.0
 40
0.1399025962048783
 40
0.2798798460066979
 40
0.4196908100705664
 40
0.5595662337860455
 40
0.7063118213515385
 40
0.8531401740822845
 40
0.9999999999999998
 40
0.9999999999999998
 40
0.9999999999999998
 40
0.9999999999999998
 10
4.439712005505714
 20
7.728599227866237
 30
0.0
 10
4.439790257008407
 20
7.729613504088037
 30
0.0
 10
4.439946801769677
 20
7.731642597760823
 30
0.0
 10
4.441225158196105
 20
7.734451547251349
 30
0.0
 10
4.443123032525503
 20
7.736855842346547
 30
0.0
 10
4.445689605565529
 20
7.738632650906454
 30
0.0
 10
4.448615770342903
 20
7.739788550582805
 30
0.0
 10
4.451738309165436
 20
7.740484809779041
 30
0.0
 10
4.453861924156186
 20
7.740559558605292
 30
0.0
 10
4.4549238454405
 20
7.740596937023658
 30
0.0
  0
SPLINE
  5
E0
330
1F
100
AcDbEntity
  8
0
  6
Continuous
 62
     7
370
     5
100
AcDbSpline
210
0.0
220
0.0
230
1.0
 70
     8
 71
     3
 72
    14
 73
    10
 74
     0
 42
0.0000000001
 43
0.0000000001
 40
0.0
 40
0.0
 40
0.0
 40
0.0
 40
0.140208421086305
 40
0.2803735246916994
 40
0.4204557134241646
 40
0.560319783368114
 40
0.7067681872878194
 40
0.8533623101464559
 40
1.0
 40
1.0
 40
1.0
 40
1.0
 10
4.4549238454405
 20
7.740596937023658
 30
0.0
 10
4.456010067243168
 20
7.740565765489482
 30
0.0
 10
4.458182175259587
 20
7.740503432051597
 30
0.0
 10
4.461385493066815
 20
7.739839839845773
 30
0.0
 10
4.464441727622417
 20
7.738688666005153
 30
0.0
 10
4.467235964054395
 20
7.736854496088116
 30
0.0
 10
4.469386421366261
 20
7.734229873744331
 30
0.0
 10
4.470819830736526
 20
7.731080483007326
 30
0.0
 10
4.471053213369483
 20
7.72881075867312
 30
0.0
 10
4.471169922023405
 20
7.727675727893565
 30
0.0
  0
LINE
  5
E1
330
1F
100
AcDbEntity
  8
0
  6
Continuous
 62
     7
370
     5
100
AcDbLine
 10
4.471169922023405
 20
7.727675727893565
 30
0.0
 11
4.464990677604459
 21
7.727676097122575
 31
0.0
  0
SPLINE
  5
E2
330
1F
100
AcDbEntity
  8
0
  6
Continuous
 62
     7
370
     5
100
AcDbSpline
210
0.0
220
0.0
230
1.0
 70
     8
 71
     3
 72
    13
 73
     9
 74
     0
 42
0.0000000001
 43
0.0000000001
 40
0.0
 40
0.0
 40
0.0
 40
0.0
 40
0.1867626446457856
 40
0.3731026092995044
 40
0.5592460720812779
 40
0.7060307165862762
 40
0.852968536327878
 40
1.0
 40
1.0
 40
1.0
 40
1.0
 10
4.464990677604459
 20
7.727676097122576
 30
0.0
 10
4.464851652577119
 20
7.728545677044887
 30
0.0
 10
4.46457391716297
 20
7.730282868861935
 30
0.0
 10
4.463309754948251
 20
7.732656154739458
 30
0.0
 10
4.461401383017
 20
7.734271292345519
 30
0.0
 10
4.459283692221242
 20
7.735096994136028
 30
0.0
 10
4.457241471938401
 20
7.735488302563031
 30
0.0
 10
4.455860176481422
 20
7.735523548381645
 30
0.0
 10
4.455169308747064
 20
7.735541176904731
 30
0.0
  0
SPLINE
  5
E3
330
1F
100
AcDbEntity
  8
0
  6
Continuous
 62
     7
370
     5
100
AcDbSpline
210
0.0
220
0.0
230
1.0
 70
     8
 71
     3
 72
    13
 73
     9
 74
     0
 42
0.0000000001
 43
0.0000000001
 40
0.0
 40
0.0
 40
0.0
 40
0.0
 40
0.18706860766274
 40
0.3739600864367047
 40
0.5603131734276147
 40
0.7070056344114012
 40
0.8534300322753063
 40
1.0
 40
1.0
 40
1.0
 40
1.0
 10
4.455169308747064
 20
7.735541176904731
 30
0.0
 10
4.454375212744544
 20
7.735517701776979
 30
0.0
 10
4.452787772641945
 20
7.735470773749272
 30
0.0
 10
4.450444106149952
 20
7.734999551979211
 30
0.0
 10
4.448415849797643
 20
7.734022008674425
 30
0.0
 10
4.446985291240941
 20
7.732545954211309
 30
0.0
 10
4.44604394905318
 20
7.730880973162092
 30
0.0
 10
4.445942182571723
 20
7.729628942461633
 30
0.0
 10
4.445891274050419
 20
7.729002616085057
 30
0.0
  0
SPLINE
  5
E4
330
1F
100
AcDbEntity
  8
0
  6
Continuous
 62
     7
370
     5
100
AcDbSpline
210
0.0
220
0.0
230
1.0
 70
     8
 71
     3
 72
    10
 73
     6
 74
     0
 42
0.0000000001
 43
0.0000000001
 40
0.0
 40
0.0
 40
0.0
 40
0.0
 40
0.2804511251215799
 40
0.5611277952808189
 40
1.0
 40
1.0
 40
1.0
 40
1.0
 10
4.445891274050419
 20
7.729002616085057
 30
0.0
 10
4.44591072350906
 20
7.728602021004797
 30
0.0
 10
4.445949638068028
 20
7.727800508676797
 30
0.0
 10
4.446386322603062
 20
7.726411741441005
 30
0.0
 10
4.447054591004678
 20
7.725616659164126
 30
0.0
 10
4.447462185870017
 20
7.725131717106721
 30
0.0
  0
SPLINE
  5
E5
330
1F
100
AcDbEntity
  8
0
  6
Continuous
 62
     7
370
     5
100
AcDbSpline
210
0.0
220
0.0
230
1.0
 70
     8
 71
     3
 72
    13
 73
     9
 74
     0
 42
0.0000000001
 43
0.0000000001
 40
0.0
 40
0.0
 40
0.0
 40
0.0
 40
0.1394755169558422
 40
0.2795533352140675
 40
0.4196526507033413
 40
0.5597660381047663
 40
0.7799309961906955
 40
1.0
 40
1.0
 40
1.0
 40
1.0
 10
4.447462185870017
 20
7.725131717106721
 30
0.0
 10
4.448176157132302
 20
7.724662938076539
 30
0.0
 10
4.44960718282036
 20
7.72372335567365
 30
0.0
 10
4.452067045807043
 20
7.722956191912595
 30
0.0
 10
4.454525036130219
 20
7.722252951457676
 30
0.0
 10
4.457488982440755
 20
7.721532579301684
 30
0.0
 10
4.460918983270012
 20
7.720656937268719
 30
0.0
 10
4.463434340302354
 20
7.719718825975491
 30
0.0
 10
4.464691744692395
 20
7.719249872565187
 30
0.0
  0
SPLINE
  5
E6
330
1F
100
AcDbEntity
  8
0
  6
Continuous
 62
     7
370
     5
100
AcDbSpline
210
0.0
220
0.0
230
1.0
 70
     8
 71
     3
 72
    12
 73
     8
 74
     0
 42
0.0000000001
 43
0.0000000001
 40
0.0
 40
0.0
 40
0.0
 40
0.0
 40
0.186961708746047
 40
0.3737733220931205
 40
0.560398321543125
 40
0.7801036850502944
 40
1.0
 40
1.0
 40
1.0
 40
1.0
 10
4.464691744692395
 20
7.719249872565187
 30
0.0
 10
4.465468083345666
 20
7.718869388117414
 30
0.0
 10
4.467020137396994
 20
7.71810872467995
 30
0.0
 10
4.469094621542772
 20
7.716523477278616
 30
0.0
 10
4.470860329471499
 20
7.714404505439388
 30
0.0
 10
4.472084435046216
 20
7.711712761465401
 30
0.0
 10
4.472222981272204
 20
7.709674664942998
 30
0.0
 10
4.472292284475622
 20
7.708655174033951
 30
0.0
  0
SPLINE
  5
E7
330
1F
100
AcDbEntity
  8
0
  6
Continuous
 62
     7
370
     5
100
AcDbSpline
210
0.0
220
0.0
230
1.0
 70
     8
 71
     3
 72
    14
 73
    10
 74
     0
 42
0.0000000001
 43
0.0000000001
 40
0.0
 40
0.0
 40
0.0
 40
0.0
 40
0.1399029677323823
 40
0.2798634669891941
 40
0.4197157068057816
 40
0.559632533719576
 40
0.7063535080008839
 40
0.8531830956769139
 40
0.9999999999999998
 40
0.9999999999999998
 40
0.9999999999999998
 40
0.9999999999999998
 10
4.472292284475622
 20
7.708655174033951
 30
0.0
 10
4.472207799405247
 20
7.707583580785024
 30
0.0
 10
4.472038794522169
 20
7.705439953621799
 30
0.0
 10
4.470688424188318
 20
7.702472393595414
 30
0.0
 10
4.468710428703838
 20
7.699917005253519
 30
0.0
 10
4.46607001179175
 20
7.697949548126905
 30
0.0
 10
4.46303169582795
 20
7.696594857446332
 30
0.0
 10
4.459744209208078
 20
7.695786635893227
 30
0.0
 10
4.457500169350808
 20
7.695700137752797
 30
0.0
 10
4.456378197885122
 20
7.695656890550623
 30
0.0
  0
SPLINE
  5
E8
330
1F
100
AcDbEntity
  8
0
  6
Continuous
 62
     7
370
     5
100
AcDbSpline
210
0.0
220
0.0
230
1.0
 70
     8
 71
     3
 72
    14
 73
    10
 74
     0
 42
0.0000000001
 43
0.0000000001
 40
0.0
 40
0.0
 40
0.0
 40
0.0
 40
0.1402135378882958
 40
0.280338627640751
 40
0.420304988031305
 40
0.5601859057983116
 40
0.7067271505082108
 40
0.8533169098233948
 40
1.0
 40
1.0
 40
1.0
 40
1.0
 10
4.456378197885122
 20
7.695656890550623
 30
0.0
 10
4.455105551974177
 20
7.695692355765764
 30
0.0
 10
4.452561062950365
 20
7.695763263824225
 30
0.0
 10
4.448804133015388
 20
7.696527513604273
 30
0.0
 10
4.445255633654776
 20
7.697995940574644
 30
0.0
 10
4.442157065817563
 20
7.70040185224365
 30
0.0
 10
4.439855692579717
 20
7.703635905608664
 30
0.0
 10
4.438356363399979
 20
7.70739285193472
 30
0.0
 10
4.438135963537416
 20
7.710055316889769
 30
0.0
 10
4.438025728536216
 20
7.711386973017399
 30
0.0
  0
SPLINE
  5
E9
330
1F
100
AcDbEntity
  8
0
  6
Continuous
 62
     7
370
     5
100
AcDbSpline
210
0.0
220
0.0
230
1.0
 70
     8
 71
     3
 72
    14
 73
    10
 74
     0
 42
0.0000000001
 43
0.0000000001
 40
0.0
 40
0.0
 40
0.0
 40
0.0
 40
0.1399858746882938
 40
0.2798562783698371
 40
0.4197556695679436
 40
0.5597002437793828
 40
0.7063623109813736
 40
0.853147939051395
 40
1.0
 40
1.0
 40
1.0
 40
1.0
 10
4.411596532615874
 20
7.700715311845682
 30
0.0
 10
4.412793322334494
 20
7.700784365596451
 30
0.0
 10
4.415185914568462
 20
7.700922416137197
 30
0.0
 10
4.418578887562115
 20
7.70224202957419
 30
0.0
 10
4.421479409439817
 20
7.704392745529373
 30
0.0
 10
4.423806289615654
 20
7.707240941652985
 30
0.0
 10
4.425314321016027
 20
7.710652512479012
 30
0.0
 10
4.426112677518013
 20
7.714344297728236
 30
0.0
 10
4.426190480247163
 20
7.716849470194024
 30
0.0
 10
4.426229390412822
 20
7.718102339813255
 30
0.0
  0
SPLINE
  5
EA
330
1F
100
AcDbEntity
  8
0
  6
Continuous
 62
     7
370
     5
100
AcDbSpline
210
0.0
220
0.0
230
1.0
 70
     8
 71
     3
 72
    14
 73
    10
 74
     0
 42
0.0000000001
 43
0.0000000001
 40
0.0
 40
0.0
 40
0.0
 40
0.0
 40
0.1402104280045839
 40
0.2803602033786879
 40
0.4204333541376293
 40
0.5603602058978559
 40
0.7069062944311609
 40
0.853413017526895
 40
1.0
 40
1.0
 40
1.0
 40
1.0
 10
4.426229390412822
 20
7.718102339813255
 30
0.0
 10
4.426190979140872
 20
7.719295197868952
 30
0.0
 10
4.426114173213032
 20
7.721680397970374
 30
0.0
 10
4.425362654272539
 20
7.725195154407916
 30
0.0
 10
4.424013891819675
 20
7.728525983384694
 30
0.0
 10
4.421868158263327
 20
7.731504816321089
 30
0.0
 10
4.418935177306173
 20
7.733794628915187
 30
0.0
 10
4.415436742550634
 20
7.735289409840625
 30
0.0
 10
4.412936733769066
 20
7.735458971232315
 30
0.0
 10
4.411686387083062
 20
7.735543775144099
 30
0.0
  0
SPLINE
  5
EB
330
1F
100
AcDbEntity
  8
0
  6
Continuous
 62
     7
370
     5
100
AcDbSpline
210
0.0
220
0.0
230
1.0
 70
     8
 71
     3
 72
    16
 73
    12
 74
     0
 42
0.0000000001
 43
0.0000000001
 40
0.0
 40
0.0
 40
0.0
 40
0.0
 40
0.1120666139045
 40
0.2241186554466648
 40
0.3361348228177827
 40
0.44808766170381
 40
0.5600469786319704
 40
0.6700197057009913
 40
0.7799835315314608
 40
0.8899823068583007
 40
1.0
 40
1.0
 40
1.0
 40
1.0
 10
4.390839139335242
 20
7.717551482331685
 30
0.0
 10
4.390872972462382
 20
7.718859590221517
 30
0.0
 10
4.390940634317239
 20
7.721475635903933
 30
0.0
 10
4.39164261431193
 20
7.725350264050351
 30
0.0
 10
4.392907895846482
 20
7.72907701012618
 30
0.0
 10
4.394849058975412
 20
7.732513395003972
 30
0.0
 10
4.397451562902123
 20
7.735444790214264
 30
0.0
 10
4.400537295908366
 20
7.737825139354099
 30
0.0
 10
4.404037036165261
 20
7.739488066220828
 30
0.0
 10
4.407797877238938
 20
7.740439066845261
 30
0.0
 10
4.410366938671393
 20
7.740546034333052
 30
0.0
 10
4.411651579836236
 20
7.740599522675674
 30
0.0
  0
SPLINE
  5
EC
330
1F
100
AcDbEntity
  8
0
  6
Continuous
 62
     7
370
     5
100
AcDbSpline
210
0.0
220
0.0
230
1.0
 70
     8
 71
     3
 72
    15
 73
    11
 74
     0
 42
0.0000000001
 43
0.0000000001
 40
0.0
 40
0.0
 40
0.0
 40
0.0
 40
0.1119998575507351
 40
0.2239880712243154
 40
0.3359807865644252
 40
0.4479880608754984
 40
0.5598631530182195
 40
0.7064430307477766
 40
0.8531914741369611
 40
1.0
 40
1.0
 40
1.0
 40
1.0
 10
4.411686387083062
 20
7.735543775144099
 30
0.0
 10
4.410701677192879
 20
7.735492098990767
 30
0.0
 10
4.408732359786222
 20
7.735388752056527
 30
0.0
 10
4.405872246054851
 20
7.734536690338543
 30
0.0
 10
4.403288285117076
 20
7.733080111899786
 30
0.0
 10
4.400985538669208
 20
7.731201089656645
 30
0.0
 10
4.399044093066122
 20
7.728543174814003
 30
0.0
 10
4.397780798850217
 20
7.725175555064889
 30
0.0
 10
4.397119623539952
 20
7.721350765428691
 30
0.0
 10
4.397052132156752
 20
7.718771027419117
 30
0.0
 10
4.397018379558403
 20
7.717480894416096
 30
0.0
  0
SPLINE
  5
ED
330
1F
100
AcDbEntity
  8
0
  6
Continuous
 62
     7
370
     5
100
AcDbSpline
210
0.0
220
0.0
230
1.0
 70
     8
 71
     3
 72
    14
 73
    10
 74
     0
 42
0.0000000001
 43
0.0000000001
 40
0.0
 40
0.0
 40
0.0
 40
0.0
 40
0.1401562317972422
 40
0.2802793817479791
 40
0.4202991603716221
 40
0.5602779186975104
 40
0.7068353515098235
 40
0.8533580118068185
 40
1.0
 40
1.0
 40
1.0
 40
1.0
 10
4.397018379558403
 20
7.717480894416096
 30
0.0
 10
4.397060286598066
 20
7.716315444203645
 30
0.0
 10
4.397144090785845
 20
7.713984818866369
 30
0.0
 10
4.397913578820692
 20
7.710553571929078
 30
0.0
 10
4.399364778046673
 20
7.707345949784263
 30
0.0
 10
4.401599145653143
 20
7.704546990936836
 30
0.0
 10
4.404483011284199
 20
7.702339006035185
 30
0.0
 10
4.407929981275127
 20
7.700938136439135
 30
0.0
 10
4.410374017233945
 20
7.700789606862348
 30
0.0
 10
4.411596532615874
 20
7.700715311845682
 30
0.0
  0
SPLINE
  5
EE
330
1F
100
AcDbEntity
  8
0
  6
Continuous
 62
     7
370
     5
100
AcDbSpline
210
0.0
220
0.0
230
1.0
 70
     8
 71
     3
 72
    14
 73
    10
 74
     0
 42
0.0000000001
 43
0.0000000001
 40
0.0
 40
0.0
 40
0.0
 40
0.0
 40
0.1400395390986461
 40
0.2800174428709346
 40
0.4199710088593333
 40
0.5599113829699468
 40
0.7065581962561925
 40
0.8532824644022609
 40
1.0
 40
1.0
 40
1.0
 40
1.0
 10
4.411622562526878
 20
7.69565956483858
 30
0.0
 10
4.410044054210455
 20
7.695742683610822
 30
0.0
 10
4.406887732323363
 20
7.6959088845724
 30
0.0
 10
4.402369537309693
 20
7.697482941759823
 30
0.0
 10
4.398343179385323
 20
7.700015721316058
 30
0.0
 10
4.394991353624773
 20
7.70352656731783
 30
0.0
 10
4.392643083924301
 20
7.707837496873874
 30
0.0
 10
4.391114797477515
 20
7.712593331801387
 30
0.0
 10
4.390931023977204
 20
7.715898790767726
 30
0.0
 10
4.390839139335242
 20
7.717551482331685
 30
0.0
  0
SPLINE
  5
EF
330
1F
100
AcDbEntity
  8
0
  6
Continuous
 62
     7
370
     5
100
AcDbSpline
210
0.0
220
0.0
230
1.0
 70
     8
 71
     3
 72
    16
 73
    12
 74
     0
 42
0.0000000001
 43
0.0000000001
 40
0.0
 40
0.0
 40
0.0
 40
0.0
 40
0.1120622147922278
 40
0.2240990690062389
 40
0.3361159700377323
 40
0.4480949844917537
 40
0.5600315639925347
 40
0.669979694728308
 40
0.7799992989817942
 40
0.8899882774719658
 40
1.0
 40
1.0
 40
1.0
 40
1.0
 10
4.432408632209401
 20
7.718058083905134
 30
0.0
 10
4.432364822247848
 20
7.716775728493644
 30
0.0
 10
4.432277212239283
 20
7.714211307877984
 30
0.0
 10
4.431488962291797
 20
7.71042965600799
 30
0.0
 10
4.430146960820273
 20
7.706814100092298
 30
0.0
 10
4.428201730430546
 20
7.703476082336525
 30
0.0
 10
4.425638114466053
 20
7.700606784989526
 30
0.0
 10
4.422521240476481
 20
7.698390248986036
 30
0.0
 10
4.419070498941956
 20
7.696827879296355
 30
0.0
 10
4.415401275923315
 20
7.695833476436394
 30
0.0
 10
4.412882220467069
 20
7.69571753936644
 30
0.0
 10
4.411622562526878
 20
7.69565956483858
 30
0.0
  0
SPLINE
  5
F0
330
1F
100
AcDbEntity
  8
0
  6
Continuous
 62
     7
370
     5
100
AcDbSpline
210
0.0
220
0.0
230
1.0
 70
     8
 71
     3
 72
    16
 73
    12
 74
     0
 42
0.0000000001
 43
0.0000000001
 40
0.0
 40
0.0
 40
0.0
 40
0.0
 40
0.1120093641538617
 40
0.2240063045649545
 40
0.3359783983478906
 40
0.4479330902373898
 40
0.5598743691976972
 40
0.6698624417135042
 40
0.7798896175500542
 40
0.8899316861004216
 40
1.0
 40
1.0
 40
1.0
 40
1.0
 10
4.411651579836236
 20
7.740599522675674
 30
0.0
 10
4.412937580754517
 20
7.740543160613452
 30
0.0
 10
4.415509439951714
 20
7.740430442740518
 30
0.0
 10
4.419257864743158
 20
7.739410012099523
 30
0.0
 10
4.42274067106728
 20
7.737720605101686
 30
0.0
 10
4.425840447449185
 20
7.735391230385306
 30
0.0
 10
4.428375670249303
 20
7.732485172837316
 30
0.0
 10
4.430256744777893
 20
7.729150689558379
 30
0.0
 10
4.431537227821216
 20
7.725575537690412
 30
0.0
 10
4.432283059487419
 20
7.721846226121253
 30
0.0
 10
4.432366771308219
 20
7.719320898348192
 30
0.0
 10
4.432408632209401
 20
7.718058083905134
 30
0.0
  0
LINE
  5
F1
330
1F
100
AcDbEntity
  8
0
  6
Continuous
 62
     7
370
     5
100
AcDbLine
 10
4.359380623869355
 20
7.708451264795216
 30
0.0
 11
4.365559909721669
 21
7.709144305096173
 31
0.0
  0
SPLINE
  5
F2
330
1F
100
AcDbEntity
  8
0
  6
Continuous
 62
     7
370
     5
100
AcDbSpline
210
0.0
220
0.0
230
1.0
 70
     8
 71
     3
 72
    13
 73
     9
 74
     0
 42
0.0000000001
 43
0.0000000001
 40
0.0
 40
0.0
 40
0.0
 40
0.0
 40
0.2504584911633365
 40
0.500395170003648
 40
0.6252510513006535
 40
0.7501146170403708
 40
0.8749643985400375
 40
1.0
 40
1.0
 40
1.0
 40
1.0
 10
4.365559909721669
 20
7.709144305096173
 30
0.0
 10
4.36561942819348
 20
7.70819294638139
 30
0.0
 10
4.365738341134629
 20
7.70629221103955
 30
0.0
 10
4.366271148823897
 20
7.703932398187521
 30
0.0
 10
4.36726908544692
 20
7.702278970989842
 30
0.0
 10
4.368388569843899
 20
7.70135503961287
 30
0.0
 10
4.369734554091663
 20
7.700801650507147
 30
0.0
 10
4.370690030405249
 20
7.700745715746091
 30
0.0
 10
4.371168123818057
 20
7.700717727568437
 30
0.0
  0
SPLINE
  5
F3
330
1F
100
AcDbEntity
  8
0
  6
Continuous
 62
     7
370
     5
100
AcDbSpline
210
0.0
220
0.0
230
1.0
 70
     8
 71
     3
 72
    14
 73
    10
 74
     0
 42
0.0000000001
 43
0.0000000001
 40
0.0
 40
0.0
 40
0.0
 40
0.0
 40
0.12494036639847
 40
0.249818812925545
 40
0.3747616879890359
 40
0.4996026490274707
 40
0.6661411496036599
 40
0.8330458379213501
 40
1.0
 40
1.0
 40
1.0
 40
1.0
 10
4.371168123818057
 20
7.700717727568437
 30
0.0
 10
4.371682170647082
 20
7.700751150324979
 30
0.0
 10
4.372710009545886
 20
7.700817979273898
 30
0.0
 10
4.374142687178555
 20
7.701452588020575
 30
0.0
 10
4.375329569067115
 20
7.702460537288271
 30
0.0
 10
4.376217771955698
 20
7.703953372350353
 30
0.0
 10
4.376611746375903
 20
7.705811527444448
 30
0.0
 10
4.376771164313996
 20
7.707854644494259
 30
0.0
 10
4.376787017457219
 20
7.709222988565683
 30
0.0
 10
4.376794945203451
 20
7.709907261987245
 30
0.0
  0
LINE
  5
F4
330
1F
100
AcDbEntity
  8
0
  6
Continuous
 62
     7
370
     5
100
AcDbLine
 10
4.376796745719348
 20
7.740039855865427
 30
0.0
 11
4.382975990138294
 21
7.740039486636417
 31
0.0
  0
LINE
  5
F5
330
1F
100
AcDbEntity
  8
0
  6
Continuous
 62
     7
370
     5
100
AcDbLine
 10
4.382975990138294
 20
7.740039486636417
 30
0.0
 11
4.382974213223683
 21
7.710301872870242
 31
0.0
  0
SPLINE
  5
F6
330
1F
100
AcDbEntity
  8
0
  6
Continuous
 62
     7
370
     5
100
AcDbSpline
210
0.0
220
0.0
230
1.0
 70
     8
 71
     3
 72
    14
 73
    10
 74
     0
 42
0.0000000001
 43
0.0000000001
 40
0.0
 40
0.0
 40
0.0
 40
0.0
 40
0.1401646520202499
 40
0.2801599393977804
 40
0.4200038366114011
 40
0.5597847299710194
 40
0.7063680857969665
 40
0.8531381108381294
 40
1.0
 40
1.0
 40
1.0
 40
1.0
 10
4.370913278982745
 20
7.695661997344473
 30
0.0
 10
4.369990821706058
 20
7.695698303137795
 30
0.0
 10
4.36814702178212
 20
7.69577087085519
 30
0.0
 10
4.36546203405564
 20
7.696527441293232
 30
0.0
 10
4.363045883390325
 20
7.697930280365919
 30
0.0
 10
4.361153015302931
 20
7.70006256068352
 30
0.0
 10
4.359991372109581
 20
7.702697633844941
 30
0.0
 10
4.359421787981973
 20
7.705553310341842
 30
0.0
 10
4.359394348101792
 20
7.707485078523181
 30
0.0
 10
4.359380623869355
 20
7.708451264795216
 30
0.0
  0
LINE
  5
F7
330
1F
100
AcDbEntity
  8
0
  6
Continuous
 62
     7
370
     5
100
AcDbLine
 10
4.376794945203451
 20
7.709907261987245
 30
0.0
 11
4.376796745719348
 21
7.740039855865427
 31
0.0
  0
SPLINE
  5
F8
330
1F
100
AcDbEntity
  8
0
  6
Continuous
 62
     7
370
     5
100
AcDbSpline
210
0.0
220
0.0
230
1.0
 70
     8
 71
     3
 72
    14
 73
    10
 74
     0
 42
0.0000000001
 43
0.0000000001
 40
0.0
 40
0.0
 40
0.0
 40
0.0
 40
0.1402198686678838
 40
0.2803860671856717
 40
0.4203428332906794
 40
0.5601465073383066
 40
0.70658030134479
 40
0.8532462801160988
 40
1.0
 40
1.0
 40
1.0
 40
1.0
 10
4.382974213223683
 20
7.710301872870242
 30
0.0
 10
4.382955011505306
 20
7.709284551855476
 30
0.0
 10
4.382916615418148
 20
7.707250299212783
 30
0.0
 10
4.382509408003149
 20
7.704220569555773
 30
0.0
 10
4.381593939535502
 20
7.701286918208394
 30
0.0
 10
4.379795093648901
 20
7.698695712942371
 30
0.0
 10
4.377174436734128
 20
7.696870728227689
 30
0.0
 10
4.374113762833503
 20
7.695820413259022
 30
0.0
 10
4.371980319587073
 20
7.695714813175166
 30
0.0
 10
4.370913278982745
 20
7.695661997344473
 30
0.0
  0
LINE
  5
F9
330
1F
100
AcDbEntity
  8
0
  6
Continuous
 62
     7
370
     5
100
AcDbLine
 10
4.378397465589308
 20
6.491960008120167
 30
0.0
 11
4.267081929120396
 21
6.491960008120169
 31
0.0
  0
ARC
  5
FA
330
1F
100
AcDbEntity
  8
0
  6
Continuous
 62
     7
370
     5
100
AcDbCircle
 10
4.378397465589308
 20
6.533626674786834
 30
0.0
 40
0.041666666666667
100
AcDbArc
 50
270.0000000000008
 51
90.0
  0
LINE
  5
FB
330
1F
100
AcDbEntity
  8
0
  6
Continuous
 62
     7
370
     5
100
AcDbLine
 10
4.267081929120398
 20
6.575293341453501
 30
0.0
 11
4.378397465589308
 21
6.5752933414535
 31
0.0
  0
ARC
  5
FC
330
1F
100
AcDbEntity
  8
0
  6
Continuous
 62
     7
370
     5
100
AcDbCircle
 10
4.267081929120397
 20
6.533626674786835
 30
0.0
 40
0.0416666666666661
100
AcDbArc
 50
89.99999999999877
 51
269.9999999999996
  0
LINE
  5
FD
330
1F
100
AcDbEntity
  8
0
  6
Continuous
 62
     7
370
     5
100
AcDbLine
 10
4.545064132255979
 20
7.200293341453503
 30
0.0
 11
4.656379668724889
 21
7.200293341453503
 31
0.0
  0
ARC
  5
FE
330
1F
100
AcDbEntity
  8
0
  6
Continuous
 62
     7
370
     5
100
AcDbCircle
 10
4.545064132255979
 20
7.158626674786837
 30
0.0
 40
0.041666666666667
100
AcDbArc
 50
90.0
 51
270.0000000000008
  0
LINE
  5
FF
330
1F
100
AcDbEntity
  8
0
  6
Continuous
 62
     7
370
     5
100
AcDbLine
 10
4.656379668724889
 20
7.11696000812017
 30
0.0
 11
4.545064132255979
 21
7.11696000812017
 31
0.0
  0
ARC
  5
100
330
1F
100
AcDbEntity
  8
0
  6
Continuous
 62
     7
370
     5
100
AcDbCircle
 10
4.656379668724889
 20
7.158626674786836
 30
0.0
 40
0.0416666666666679
100
AcDbArc
 50
270.0000000000008
 51
90.0
  0
LINE
  5
101
330
1F
100
AcDbEntity
  8
0
  6
Continuous
 62
     7
370
     5
100
AcDbLine
 10
4.378397465589307
 20
6.346126674786834
 30
0.0
 11
4.121248595787061
 21
6.346126674786837
 31
0.0
  0
ARC
  5
102
330
1F
100
AcDbEntity
  8
0
  6
Continuous
 62
     7
370
     5
100
AcDbCircle
 10
4.378397465589307
 20
6.3877933414535
 30
0.0
 40
0.0416666666666679
100
AcDbArc
 50
270.0000000000008
 51
90.0
  0
LINE
  5
103
330
1F
100
AcDbEntity
  8
0
  6
Continuous
 62
     7
370
     5
100
AcDbLine
 10
4.121248595787062
 20
6.42946000812017
 30
0.0
 11
4.378397465589307
 21
6.429460008120168
 31
0.0
  0
ARC
  5
104
330
1F
100
AcDbEntity
  8
0
  6
Continuous
 62
     7
370
     5
100
AcDbCircle
 10
4.121248595787062
 20
6.387793341453503
 30
0.0
 40
0.041666666666667
100
AcDbArc
 50
90.0
 51
269.9999999999996
  0
LINE
  5
105
330
1F
100
AcDbEntity
  8
0
  6
Continuous
 62
     7
370
     5
100
AcDbLine
 10
4.545064132255979
 20
7.346126674786837
 30
0.0
 11
4.802213002058223
 21
7.346126674786836
 31
0.0
  0
ARC
  5
106
330
1F
100
AcDbEntity
  8
0
  6
Continuous
 62
     7
370
     5
100
AcDbCircle
 10
4.545064132255979
 20
7.30446000812017
 30
0.0
 40
0.041666666666667
100
AcDbArc
 50
90.0
 51
270.0000000000008
  0
LINE
  5
107
330
1F
100
AcDbEntity
  8
0
  6
Continuous
 62
     7
370
     5
100
AcDbLine
 10
4.802213002058223
 20
7.262793341453503
 30
0.0
 11
4.545064132255979
 21
7.262793341453503
 31
0.0
  0
ARC
  5
108
330
1F
100
AcDbEntity
  8
0
  6
Continuous
 62
     7
370
     5
100
AcDbCircle
 10
4.802213002058223
 20
7.30446000812017
 30
0.0
 40
0.0416666666666661
100
AcDbArc
 50
270.0000000000008
 51
90.0
  0
LINE
  5
109
330
1F
100
AcDbEntity
  8
0
  6
Continuous
 62
     7
370
     5
100
AcDbLine
 10
4.378397465589305
 20
6.200293341453501
 30
0.0
 11
3.975415262453727
 21
6.200293341453504
 31
0.0
  0
ARC
  5
10A
330
1F
100
AcDbEntity
  8
0
  6
Continuous
 62
     7
370
     5
100
AcDbCircle
 10
4.378397465589305
 20
6.241960008120168
 30
0.0
 40
0.041666666666667
100
AcDbArc
 50
270.0000000000008
 51
90.0
  0
LINE
  5
10B
330
1F
100
AcDbEntity
  8
0
  6
Continuous
 62
     7
370
     5
100
AcDbLine
 10
3.975415262453728
 20
6.283626674786838
 30
0.0
 11
4.378397465589305
 21
6.283626674786834
 31
0.0
  0
ARC
  5
10C
330
1F
100
AcDbEntity
  8
0
  6
Continuous
 62
     7
370
     5
100
AcDbCircle
 10
3.975415262453727
 20
6.241960008120172
 30
0.0
 40
0.0416666666666679
100
AcDbArc
 50
89.99999999999939
 51
270.0000000000002
  0
LINE
  5
10D
330
1F
100
AcDbEntity
  8
0
  6
Continuous
 62
     7
370
     5
100
AcDbLine
 10
4.54506413225598
 20
7.49196000812017
 30
0.0
 11
4.948046335391557
 21
7.491960008120169
 31
0.0
  0
ARC
  5
10E
330
1F
100
AcDbEntity
  8
0
  6
Continuous
 62
     7
370
     5
100
AcDbCircle
 10
4.54506413225598
 20
7.450293341453503
 30
0.0
 40
0.041666666666667
100
AcDbArc
 50
90.0
 51
270.0000000000008
  0
LINE
  5
10F
330
1F
100
AcDbEntity
  8
0
  6
Continuous
 62
     7
370
     5
100
AcDbLine
 10
4.948046335391557
 20
7.408626674786836
 30
0.0
 11
4.54506413225598
 21
7.408626674786837
 31
0.0
  0
ARC
  5
110
330
1F
100
AcDbEntity
  8
0
  6
Continuous
 62
     7
370
     5
100
AcDbCircle
 10
4.948046335391557
 20
7.450293341453502
 30
0.0
 40
0.041666666666667
100
AcDbArc
 50
270.0000000000008
 51
90.0
  0
LINE
  5
111
330
1F
100
AcDbEntity
  8
0
  6
Continuous
 62
     7
370
     5
100
AcDbLine
 10
4.378397465589303
 20
6.054460008120167
 30
0.0
 11
3.829581929120392
 21
6.054460008120173
 31
0.0
  0
LINE
  5
112
330
1F
100
AcDbEntity
  8
0
  6
Continuous
 62
     7
370
     5
100
AcDbLine
 10
3.829581929120393
 20
6.137793341453505
 30
0.0
 11
4.378397465589303
 21
6.1377933414535
 31
0.0
  0
ARC
  5
113
330
1F
100
AcDbEntity
  8
0
  6
Continuous
 62
     7
370
     5
100
AcDbCircle
 10
3.829581929120392
 20
6.096126674786839
 30
0.0
 40
0.0416666666666661
100
AcDbArc
 50
89.99999999999939
 51
270.0000000000002
  0
LINE
  5
114
330
1F
100
AcDbEntity
  8
0
  6
Continuous
 62
     7
370
     5
100
AcDbLine
 10
4.54506413225598
 20
7.637793341453503
 30
0.0
 11
5.093879668724891
 21
7.637793341453501
 31
0.0
  0
ARC
  5
115
330
1F
100
AcDbEntity
  8
0
  6
Continuous
 62
     7
370
     5
100
AcDbCircle
 10
4.54506413225598
 20
7.596126674786837
 30
0.0
 40
0.041666666666667
100
AcDbArc
 50
90.0
 51
270.0000000000008
  0
LINE
  5
116
330
1F
100
AcDbEntity
  8
0
  6
Continuous
 62
     7
370
     5
100
AcDbLine
 10
5.093879668724891
 20
7.554460008120169
 30
0.0
 11
4.54506413225598
 21
7.55446000812017
 31
0.0
  0
ARC
  5
117
330
1F
100
AcDbEntity
  8
0
  6
Continuous
 62
     7
370
     5
100
AcDbCircle
 10
5.093879668724891
 20
7.596126674786835
 30
0.0
 40
0.0416666666666661
100
AcDbArc
 50
270.0000000000008
 51
90.0
  0
LINE
  5
118
330
1F
100
AcDbEntity
  8
0
  6
Continuous
 62
     7
370
     5
100
AcDbLine
 10
5.399230798922642
 20
6.658626674786825
 30
0.0
 11
5.399230798922646
 21
7.033626674786826
 31
0.0
  0
LINE
  5
119
330
1F
100
AcDbEntity
  8
0
  6
Continuous
 62
     7
370
     5
100
AcDbLine
 10
5.399230798922642
 20
6.658626674786825
 30
0.0
 11
5.398897465589309
 21
6.658626674786825
 31
0.0
  0
ARC
  5
11A
330
1F
100
AcDbEntity
  8
0
  6
Continuous
 62
     7
370
     5
100
AcDbCircle
 10
5.398897465589308
 20
6.575626674786825
 30
0.0
 40
0.0830000000000002
100
AcDbArc
 50
89.99999999999939
 51
180.0
  0
LINE
  5
11B
330
1F
100
AcDbEntity
  8
0
  6
Continuous
 62
     7
370
     5
100
AcDbLine
 10
5.315897465589308
 20
6.575626674786825
 30
0.0
 11
5.315897465589304
 21
6.220793341453493
 31
0.0
  0
ARC
  5
11C
330
1F
100
AcDbEntity
  8
0
  6
Continuous
 62
     7
370
     5
100
AcDbCircle
 10
5.398897465589304
 20
6.220793341453491
 30
0.0
 40
0.0830000000000002
100
AcDbArc
 50
179.9999999999988
 51
270.0000000000002
  0
LINE
  5
11D
330
1F
100
AcDbEntity
  8
0
  6
Continuous
 62
     7
370
     5
100
AcDbLine
 10
5.398897465589303
 20
6.137793341453491
 30
0.0
 11
5.399230798922637
 21
6.137793341453491
 31
0.0
  0
LINE
  5
11E
330
1F
100
AcDbEntity
  8
0
  6
Continuous
 62
     7
370
     5
100
AcDbLine
 10
5.399230798922645
 20
5.908626674786835
 30
0.0
 11
5.399230798922637
 21
6.137793341453491
 31
0.0
  0
LINE
  5
11F
330
1F
100
AcDbEntity
  8
0
  6
Continuous
 62
     7
370
     5
100
AcDbLine
 10
5.170064132255977
 20
5.908626674786835
 30
0.0
 11
5.399230798922645
 21
5.908626674786835
 31
0.0
  0
LINE
  5
120
330
1F
100
AcDbEntity
  8
0
  6
Continuous
 62
     7
370
     5
100
AcDbLine
 10
5.170064132255977
 20
5.908626674786835
 30
0.0
 11
5.170064132255977
 21
5.908960008120168
 31
0.0
  0
ARC
  5
121
330
1F
100
AcDbEntity
  8
0
  6
Continuous
 62
     7
370
     5
100
AcDbCircle
 10
5.087064132255978
 20
5.908960008120168
 30
0.0
 40
0.0830000000000002
100
AcDbArc
 50
0.0
 51
90.00000000000062
  0
LINE
  5
122
330
1F
100
AcDbEntity
  8
0
  6
Continuous
 62
     7
370
     5
100
AcDbLine
 10
5.087064132255977
 20
5.991960008120169
 30
0.0
 11
4.732230798922644
 21
5.991960008120169
 31
0.0
  0
ARC
  5
123
330
1F
100
AcDbEntity
  8
0
  6
Continuous
 62
     7
370
     5
100
AcDbCircle
 10
4.732230798922644
 20
5.908960008120168
 30
0.0
 40
0.0830000000000002
100
AcDbArc
 50
90.0
 51
180.0
  0
LINE
  5
124
330
1F
100
AcDbEntity
  8
0
  6
Continuous
 62
     7
370
     5
100
AcDbLine
 10
4.649230798922644
 20
5.908960008120168
 30
0.0
 11
4.649230798922644
 21
5.908626674786835
 31
0.0
  0
LINE
  5
125
330
1F
100
AcDbEntity
  8
0
  6
Continuous
 62
     7
370
     5
100
AcDbLine
 10
4.274230798922644
 20
5.908626674786835
 30
0.0
 11
4.649230798922644
 21
5.908626674786835
 31
0.0
  0
LINE
  5
126
330
1F
100
AcDbEntity
  8
0
  6
Continuous
 62
     7
370
     5
100
AcDbLine
 10
4.274230798922644
 20
5.908626674786835
 30
0.0
 11
4.274230798922644
 21
5.908960008120168
 31
0.0
  0
ARC
  5
127
330
1F
100
AcDbEntity
  8
0
  6
Continuous
 62
     7
370
     5
100
AcDbCircle
 10
4.191230798922644
 20
5.908960008120168
 30
0.0
 40
0.0830000000000002
100
AcDbArc
 50
0.0
 51
90.0
  0
LINE
  5
128
330
1F
100
AcDbEntity
  8
0
  6
Continuous
 62
     7
370
     5
100
AcDbLine
 10
4.191230798922644
 20
5.991960008120169
 30
0.0
 11
3.836397465589311
 21
5.991960008120169
 31
0.0
  0
ARC
  5
129
330
1F
100
AcDbEntity
  8
0
  6
Continuous
 62
     7
370
     5
100
AcDbCircle
 10
3.836397465589311
 20
5.908960008120168
 30
0.0
 40
0.0830000000000002
100
AcDbArc
 50
90.0
 51
180.0
  0
LINE
  5
12A
330
1F
100
AcDbEntity
  8
0
  6
Continuous
 62
     7
370
     5
100
AcDbLine
 10
3.753397465589311
 20
5.908960008120168
 30
0.0
 11
3.753397465589311
 21
5.908626674786835
 31
0.0
  0
LINE
  5
12B
330
1F
100
AcDbEntity
  8
0
  6
Continuous
 62
     7
370
     5
100
AcDbLine
 10
3.524230798922645
 20
5.908626674786835
 30
0.0
 11
3.753397465589311
 21
5.908626674786835
 31
0.0
  0
LINE
  5
12C
330
1F
100
AcDbEntity
  8
0
  6
Continuous
 62
     7
370
     5
100
AcDbLine
 10
3.524230798922642
 20
6.137793341453504
 30
0.0
 11
3.524230798922645
 21
5.908626674786835
 31
0.0
  0
LINE
  5
12D
330
1F
100
AcDbEntity
  8
0
  6
Continuous
 62
     7
370
     5
100
AcDbLine
 10
3.524230798922642
 20
6.137793341453504
 30
0.0
 11
3.524564132255975
 21
6.137793341453504
 31
0.0
  0
ARC
  5
12E
330
1F
100
AcDbEntity
  8
0
  6
Continuous
 62
     7
370
     5
100
AcDbCircle
 10
3.524564132255975
 20
6.220793341453505
 30
0.0
 40
0.0830000000000002
100
AcDbArc
 50
270.0000000000008
 51
0.0
  0
LINE
  5
12F
330
1F
100
AcDbEntity
  8
0
  6
Continuous
 62
     7
370
     5
100
AcDbLine
 10
3.607564132255975
 20
6.220793341453505
 30
0.0
 11
3.607564132255976
 21
6.575626674786838
 31
0.0
  0
ARC
  5
130
330
1F
100
AcDbEntity
  8
0
  6
Continuous
 62
     7
370
     5
100
AcDbCircle
 10
3.524564132255976
 20
6.575626674786838
 30
0.0
 40
0.0830000000000002
100
AcDbArc
 50
0.0
 51
89.99999999999969
  0
LINE
  5
131
330
1F
100
AcDbEntity
  8
0
  6
Continuous
 62
     7
370
     5
100
AcDbLine
 10
3.524564132255977
 20
6.658626674786838
 30
0.0
 11
3.524230798922644
 21
6.658626674786838
 31
0.0
  0
LINE
  5
132
330
1F
100
AcDbEntity
  8
0
  6
Continuous
 62
     7
370
     5
100
AcDbLine
 10
3.524230798922645
 20
7.033626674786838
 30
0.0
 11
3.524230798922644
 21
6.658626674786838
 31
0.0
  0
LINE
  5
133
330
1F
100
AcDbEntity
  8
0
  6
Continuous
 62
     7
370
     5
100
AcDbLine
 10
3.524230798922645
 20
7.033626674786838
 30
0.0
 11
3.524564132255978
 21
7.033626674786838
 31
0.0
  0
ARC
  5
134
330
1F
100
AcDbEntity
  8
0
  6
Continuous
 62
     7
370
     5
100
AcDbCircle
 10
3.524564132255978
 20
7.116626674786838
 30
0.0
 40
0.0830000000000002
100
AcDbArc
 50
270.0000000000008
 51
0.0
  0
LINE
  5
135
330
1F
100
AcDbEntity
  8
0
  6
Continuous
 62
     7
370
     5
100
AcDbLine
 10
3.607564132255979
 20
7.116626674786838
 30
0.0
 11
3.60756413225598
 21
7.471460008120171
 31
0.0
  0
ARC
  5
136
330
1F
100
AcDbEntity
  8
0
  6
Continuous
 62
     7
370
     5
100
AcDbCircle
 10
3.52456413225598
 20
7.471460008120171
 30
0.0
 40
0.0830000000000002
100
AcDbArc
 50
0.0
 51
89.99999999999969
  0
LINE
  5
137
330
1F
100
AcDbEntity
  8
0
  6
Continuous
 62
     7
370
     5
100
AcDbLine
 10
3.524564132255981
 20
7.554460008120171
 30
0.0
 11
3.524230798922647
 21
7.554460008120171
 31
0.0
  0
LINE
  5
138
330
1F
100
AcDbEntity
  8
0
  6
Continuous
 62
     7
370
     5
100
AcDbLine
 10
3.524230798922645
 20
7.783626674786835
 30
0.0
 11
3.524230798922647
 21
7.554460008120171
 31
0.0
  0
LINE
  5
139
330
1F
100
AcDbEntity
  8
0
  6
Continuous
 62
     7
370
     5
100
AcDbLine
 10
3.753397465589318
 20
7.78362667478684
 30
0.0
 11
3.524230798922645
 21
7.783626674786835
 31
0.0
  0
LINE
  5
13A
330
1F
100
AcDbEntity
  8
0
  6
Continuous
 62
     7
370
     5
100
AcDbLine
 10
3.753397465589318
 20
7.78362667478684
 30
0.0
 11
3.753397465589318
 21
7.783293341453506
 31
0.0
  0
ARC
  5
13B
330
1F
100
AcDbEntity
  8
0
  6
Continuous
 62
     7
370
     5
100
AcDbCircle
 10
3.836397465589318
 20
7.783293341453506
 30
0.0
 40
0.0830000000000002
100
AcDbArc
 50
180.0
 51
270.0000000000002
  0
LINE
  5
13C
330
1F
100
AcDbEntity
  8
0
  6
Continuous
 62
     7
370
     5
100
AcDbLine
 10
3.836397465589317
 20
7.700293341453506
 30
0.0
 11
4.19123079892265
 21
7.700293341453504
 31
0.0
  0
ARC
  5
13D
330
1F
100
AcDbEntity
  8
0
  6
Continuous
 62
     7
370
     5
100
AcDbCircle
 10
4.191230798922651
 20
7.783293341453503
 30
0.0
 40
0.0829999999999993
100
AcDbArc
 50
270.0000000000002
 51
0.0
  0
LINE
  5
13E
330
1F
100
AcDbEntity
  8
0
  6
Continuous
 62
     7
370
     5
100
AcDbLine
 10
4.27423079892265
 20
7.783293341453503
 30
0.0
 11
4.27423079892265
 21
7.783626674786836
 31
0.0
  0
LINE
  5
13F
330
1F
100
AcDbEntity
  8
0
  6
Continuous
 62
     7
370
     5
100
AcDbLine
 10
4.64923079892265
 20
7.783626674786834
 30
0.0
 11
4.27423079892265
 21
7.783626674786836
 31
0.0
  0
LINE
  5
140
330
1F
100
AcDbEntity
  8
0
  6
Continuous
 62
     7
370
     5
100
AcDbLine
 10
4.64923079892265
 20
7.783626674786834
 30
0.0
 11
4.64923079892265
 21
7.7832933414535
 31
0.0
  0
ARC
  5
141
330
1F
100
AcDbEntity
  8
0
  6
Continuous
 62
     7
370
     5
100
AcDbCircle
 10
4.732230798922651
 20
7.7832933414535
 30
0.0
 40
0.0830000000000002
100
AcDbArc
 50
180.0
 51
270.0000000000008
  0
LINE
  5
142
330
1F
100
AcDbEntity
  8
0
  6
Continuous
 62
     7
370
     5
100
AcDbLine
 10
4.732230798922651
 20
7.7002933414535
 30
0.0
 11
5.087064132255983
 21
7.700293341453497
 31
0.0
  0
ARC
  5
143
330
1F
100
AcDbEntity
  8
0
  6
Continuous
 62
     7
370
     5
100
AcDbCircle
 10
5.087064132255984
 20
7.783293341453497
 30
0.0
 40
0.0830000000000002
100
AcDbArc
 50
270.0000000000002
 51
0.0000000000002036
  0
LINE
  5
144
330
1F
100
AcDbEntity
  8
0
  6
Continuous
 62
     7
370
     5
100
AcDbLine
 10
5.170064132255983
 20
7.783293341453497
 30
0.0
 11
5.170064132255983
 21
7.78362667478683
 31
0.0
  0
LINE
  5
145
330
1F
100
AcDbEntity
  8
0
  6
Continuous
 62
     7
370
     5
100
AcDbLine
 10
5.399230798922645
 20
7.783626674786835
 30
0.0
 11
5.170064132255983
 21
7.78362667478683
 31
0.0
  0
LINE
  5
146
330
1F
100
AcDbEntity
  8
0
  6
Continuous
 62
     7
370
     5
100
AcDbLine
 10
5.399230798922652
 20
7.554460008120158
 30
0.0
 11
5.399230798922645
 21
7.783626674786835
 31
0.0
  0
LINE
  5
147
330
1F
100
AcDbEntity
  8
0
  6
Continuous
 62
     7
370
     5
100
AcDbLine
 10
5.399230798922652
 20
7.554460008120158
 30
0.0
 11
5.398897465589318
 21
7.554460008120158
 31
0.0
  0
ARC
  5
148
330
1F
100
AcDbEntity
  8
0
  6
Continuous
 62
     7
370
     5
100
AcDbCircle
 10
5.398897465589318
 20
7.471460008120158
 30
0.0
 40
0.0830000000000002
100
AcDbArc
 50
89.99999999999939
 51
179.9999999999988
  0
LINE
  5
149
330
1F
100
AcDbEntity
  8
0
  6
Continuous
 62
     7
370
     5
100
AcDbLine
 10
5.315897465589317
 20
7.47146000812016
 30
0.0
 11
5.315897465589314
 21
7.116626674786826
 31
0.0
  0
ARC
  5
14A
330
1F
100
AcDbEntity
  8
0
  6
Continuous
 62
     7
370
     5
100
AcDbCircle
 10
5.398897465589314
 20
7.116626674786824
 30
0.0
 40
0.0830000000000002
100
AcDbArc
 50
179.9999999999988
 51
270.0000000000002
  0
LINE
  5
14B
330
1F
100
AcDbEntity
  8
0
  6
Continuous
 62
     7
370
     5
100
AcDbLine
 10
5.398897465589313
 20
7.033626674786826
 30
0.0
 11
5.399230798922646
 21
7.033626674786826
 31
0.0
  0
LINE
  5
14C
330
1F
100
AcDbEntity
  8
0
  6
Continuous
 62
     7
370
     5
100
AcDbLine
 10
3.670064132255975
 20
6.762793341453502
 30
0.0
 11
3.670064132255975
 21
6.21397780498459
 31
0.0
  0
ARC
  5
14D
330
1F
100
AcDbEntity
  8
0
  6
Continuous
 62
     7
370
     5
100
AcDbCircle
 10
3.711730798922642
 20
6.21397780498459
 30
0.0
 40
0.041666666666667
100
AcDbArc
 50
180.0
 51
0.0
  0
LINE
  5
14E
330
1F
100
AcDbEntity
  8
0
  6
Continuous
 62
     7
370
     5
100
AcDbLine
 10
3.753397465589309
 20
6.21397780498459
 30
0.0
 11
3.753397465589309
 21
6.762793341453502
 31
0.0
  0
ARC
  5
14F
330
1F
100
AcDbEntity
  8
0
  6
Continuous
 62
     7
370
     5
100
AcDbCircle
 10
3.711730798922642
 20
6.762793341453502
 30
0.0
 40
0.041666666666667
100
AcDbArc
 50
0.0
 51
180.0
  0
LINE
  5
150
330
1F
100
AcDbEntity
  8
0
  6
Continuous
 62
     7
370
     5
100
AcDbLine
 10
3.670064132255975
 20
6.929460008120168
 30
0.0
 11
3.670064132255975
 21
7.478275544589079
 31
0.0
  0
ARC
  5
151
330
1F
100
AcDbEntity
  8
0
  6
Continuous
 62
     7
370
     5
100
AcDbCircle
 10
3.711730798922642
 20
6.929460008120168
 30
0.0
 40
0.041666666666667
100
AcDbArc
 50
180.0
 51
0.0
  0
LINE
  5
152
330
1F
100
AcDbEntity
  8
0
  6
Continuous
 62
     7
370
     5
100
AcDbLine
 10
3.753397465589309
 20
7.478275544589079
 30
0.0
 11
3.753397465589309
 21
6.929460008120168
 31
0.0
  0
ARC
  5
153
330
1F
100
AcDbEntity
  8
0
  6
Continuous
 62
     7
370
     5
100
AcDbCircle
 10
3.711730798922642
 20
7.478275544589079
 30
0.0
 40
0.041666666666667
100
AcDbArc
 50
0.0
 51
180.0
  0
LINE
  5
154
330
1F
100
AcDbEntity
  8
0
  6
Continuous
 62
     7
370
     5
100
AcDbLine
 10
5.253397465589312
 20
6.762793341453495
 30
0.0
 11
5.253397465589308
 21
6.213977804984585
 31
0.0
  0
ARC
  5
155
330
1F
100
AcDbEntity
  8
0
  6
Continuous
 62
     7
370
     5
100
AcDbCircle
 10
5.211730798922646
 20
6.762793341453497
 30
0.0
 40
0.041666666666667
100
AcDbArc
 50
359.9999999999984
 51
180.0
  0
LINE
  5
156
330
1F
100
AcDbEntity
  8
0
  6
Continuous
 62
     7
370
     5
100
AcDbLine
 10
5.170064132255975
 20
6.213977804984586
 30
0.0
 11
5.170064132255979
 21
6.762793341453497
 31
0.0
  0
ARC
  5
157
330
1F
100
AcDbEntity
  8
0
  6
Continuous
 62
     7
370
     5
100
AcDbCircle
 10
5.211730798922642
 20
6.213977804984586
 30
0.0
 40
0.0416666666666679
100
AcDbArc
 50
180.0
 51
359.9999999999996
  0
LINE
  5
158
330
1F
100
AcDbEntity
  8
0
  6
Continuous
 62
     7
370
     5
100
AcDbLine
 10
4.378397465589314
 20
7.637793341453504
 30
0.0
 11
3.829581929120402
 21
7.637793341453505
 31
0.0
  0
ARC
  5
159
330
1F
100
AcDbEntity
  8
0
  6
Continuous
 62
     7
370
     5
100
AcDbCircle
 10
3.829581929120402
 20
7.596126674786839
 30
0.0
 40
0.041666666666667
100
AcDbArc
 50
90.0
 51
270.0000000000008
  0
LINE
  5
15A
330
1F
100
AcDbEntity
  8
0
  6
Continuous
 62
     7
370
     5
100
AcDbLine
 10
3.829581929120402
 20
7.554460008120172
 30
0.0
 11
4.378397465589314
 21
7.55446000812017
 31
0.0
  0
ARC
  5
15B
330
1F
100
AcDbEntity
  8
0
  6
Continuous
 62
     7
370
     5
100
AcDbCircle
 10
4.378397465589314
 20
7.596126674786837
 30
0.0
 40
0.0416666666666679
100
AcDbArc
 50
270.0000000000008
 51
90.0
  0
LINE
  5
15C
330
1F
100
AcDbEntity
  8
0
  6
Continuous
 62
     7
370
     5
100
AcDbLine
 10
5.253397465589315
 20
6.929460008120162
 30
0.0
 11
5.253397465589317
 21
7.478275544589074
 31
0.0
  0
ARC
  5
15D
330
1F
100
AcDbEntity
  8
0
  6
Continuous
 62
     7
370
     5
100
AcDbCircle
 10
5.211730798922651
 20
7.478275544589074
 30
0.0
 40
0.0416666666666679
100
AcDbArc
 50
0.0
 51
180.0
  0
LINE
  5
15E
330
1F
100
AcDbEntity
  8
0
  6
Continuous
 62
     7
370
     5
100
AcDbLine
 10
5.170064132255983
 20
7.478275544589074
 30
0.0
 11
5.170064132255981
 21
6.929460008120162
 31
0.0
  0
ARC
  5
15F
330
1F
100
AcDbEntity
  8
0
  6
Continuous
 62
     7
370
     5
100
AcDbCircle
 10
5.211730798922647
 20
6.929460008120162
 30
0.0
 40
0.0416666666666679
100
AcDbArc
 50
180.0
 51
0.0
  0
LINE
  5
160
330
1F
100
AcDbEntity
  8
0
  6
Continuous
 62
     7
370
     5
100
AcDbLine
 10
4.545064132255969
 20
6.054460008120165
 30
0.0
 11
5.093879668724881
 21
6.05446000812016
 31
0.0
  0
ARC
  5
161
330
1F
100
AcDbEntity
  8
0
  6
Continuous
 62
     7
370
     5
100
AcDbCircle
 10
5.093879668724881
 20
6.096126674786826
 30
0.0
 40
0.041666666666667
100
AcDbArc
 50
270.0000000000008
 51
89.99999999999877
  0
LINE
  5
162
330
1F
100
AcDbEntity
  8
0
  6
Continuous
 62
     7
370
     5
100
AcDbLine
 10
5.093879668724881
 20
6.137793341453493
 30
0.0
 11
4.54506413225597
 21
6.137793341453498
 31
0.0
  0
ARC
  5
163
330
1F
100
AcDbEntity
  8
0
  6
Continuous
 62
     7
370
     5
100
AcDbCircle
 10
4.54506413225597
 20
6.096126674786831
 30
0.0
 40
0.041666666666667
100
AcDbArc
 50
90.0
 51
269.9999999999996
  0
LINE
  5
164
330
1F
100
AcDbEntity
  8
0
  6
Continuous
 62
     7
370
     5
100
AcDbLine
 10
3.815897465589308
 20
6.762793341453502
 30
0.0
 11
3.815897465589308
 21
6.359811138317924
 31
0.0
  0
ARC
  5
165
330
1F
100
AcDbEntity
  8
0
  6
Continuous
 62
     7
370
     5
100
AcDbCircle
 10
3.857564132255976
 20
6.359811138317924
 30
0.0
 40
0.0416666666666674
100
AcDbArc
 50
180.0
 51
0.0
  0
LINE
  5
166
330
1F
100
AcDbEntity
  8
0
  6
Continuous
 62
     7
370
     5
100
AcDbLine
 10
3.899230798922642
 20
6.359811138317924
 30
0.0
 11
3.899230798922642
 21
6.762793341453502
 31
0.0
  0
ARC
  5
167
330
1F
100
AcDbEntity
  8
0
  6
Continuous
 62
     7
370
     5
100
AcDbCircle
 10
3.857564132255976
 20
6.762793341453502
 30
0.0
 40
0.0416666666666674
100
AcDbArc
 50
0.0
 51
180.0
  0
LINE
  5
168
330
1F
100
AcDbEntity
  8
0
  6
Continuous
 62
     7
370
     5
100
AcDbLine
 10
3.815897465589308
 20
6.929460008120168
 30
0.0
 11
3.815897465589308
 21
7.332442211255745
 31
0.0
  0
LINE
  5
169
330
1F
100
AcDbEntity
  8
0
  6
Continuous
 62
     7
370
     5
100
AcDbLine
 10
3.899230798922642
 20
7.332442211255745
 30
0.0
 11
3.899230798922642
 21
6.929460008120168
 31
0.0
  0
ARC
  5
16A
330
1F
100
AcDbEntity
  8
0
  6
Continuous
 62
     7
370
     5
100
AcDbCircle
 10
3.857564132255976
 20
7.332442211255745
 30
0.0
 40
0.0416666666666674
100
AcDbArc
 50
0.0
 51
180.0
  0
LINE
  5
16B
330
1F
100
AcDbEntity
  8
0
  6
Continuous
 62
     7
370
     5
100
AcDbLine
 10
5.10756413225598
 20
6.762793341453497
 30
0.0
 11
5.107564132255976
 21
6.35981113831792
 31
0.0
  0
ARC
  5
16C
330
1F
100
AcDbEntity
  8
0
  6
Continuous
 62
     7
370
     5
100
AcDbCircle
 10
5.065897465589312
 20
6.762793341453497
 30
0.0
 40
0.0416666666666679
100
AcDbArc
 50
0.0
 51
179.9999999999988
  0
LINE
  5
16D
330
1F
100
AcDbEntity
  8
0
  6
Continuous
 62
     7
370
     5
100
AcDbLine
 10
5.024230798922643
 20
6.35981113831792
 30
0.0
 11
5.024230798922646
 21
6.762793341453498
 31
0.0
  0
ARC
  5
16E
330
1F
100
AcDbEntity
  8
0
  6
Continuous
 62
     7
370
     5
100
AcDbCircle
 10
5.06589746558931
 20
6.35981113831792
 30
0.0
 40
0.041666666666667
100
AcDbArc
 50
180.0
 51
0.0
  0
LINE
  5
16F
330
1F
100
AcDbEntity
  8
0
  6
Continuous
 62
     7
370
     5
100
AcDbLine
 10
4.378397465589313
 20
7.49196000812017
 30
0.0
 11
3.975415262453735
 21
7.491960008120172
 31
0.0
  0
ARC
  5
170
330
1F
100
AcDbEntity
  8
0
  6
Continuous
 62
     7
370
     5
100
AcDbCircle
 10
3.975415262453735
 20
7.450293341453505
 30
0.0
 40
0.041666666666667
100
AcDbArc
 50
90.0
 51
270.0000000000002
  0
LINE
  5
171
330
1F
100
AcDbEntity
  8
0
  6
Continuous
 62
     7
370
     5
100
AcDbLine
 10
3.975415262453735
 20
7.408626674786839
 30
0.0
 11
4.378397465589313
 21
7.408626674786837
 31
0.0
  0
ARC
  5
172
330
1F
100
AcDbEntity
  8
0
  6
Continuous
 62
     7
370
     5
100
AcDbCircle
 10
4.378397465589313
 20
7.450293341453504
 30
0.0
 40
0.0416666666666679
100
AcDbArc
 50
270.0000000000008
 51
90.0
  0
LINE
  5
173
330
1F
100
AcDbEntity
  8
0
  6
Continuous
 62
     7
370
     5
100
AcDbLine
 10
5.107564132255981
 20
6.929460008120164
 30
0.0
 11
5.107564132255983
 21
7.332442211255741
 31
0.0
  0
ARC
  5
174
330
1F
100
AcDbEntity
  8
0
  6
Continuous
 62
     7
370
     5
100
AcDbCircle
 10
5.065897465589316
 20
7.332442211255743
 30
0.0
 40
0.041666666666667
100
AcDbArc
 50
359.9999999999984
 51
180.0
  0
LINE
  5
175
330
1F
100
AcDbEntity
  8
0
  6
Continuous
 62
     7
370
     5
100
AcDbLine
 10
5.02423079892265
 20
7.332442211255743
 30
0.0
 11
5.024230798922647
 21
6.929460008120165
 31
0.0
  0
ARC
  5
176
330
1F
100
AcDbEntity
  8
0
  6
Continuous
 62
     7
370
     5
100
AcDbCircle
 10
5.065897465589314
 20
6.929460008120164
 30
0.0
 40
0.041666666666667
100
AcDbArc
 50
179.9999999999988
 51
0.0
  0
LINE
  5
177
330
1F
100
AcDbEntity
  8
0
  6
Continuous
 62
     7
370
     5
100
AcDbLine
 10
4.545064132255971
 20
6.200293341453499
 30
0.0
 11
4.948046335391548
 21
6.200293341453495
 31
0.0
  0
ARC
  5
178
330
1F
100
AcDbEntity
  8
0
  6
Continuous
 62
     7
370
     5
100
AcDbCircle
 10
4.948046335391548
 20
6.241960008120161
 30
0.0
 40
0.041666666666667
100
AcDbArc
 50
270.0000000000008
 51
90.0
  0
LINE
  5
179
330
1F
100
AcDbEntity
  8
0
  6
Continuous
 62
     7
370
     5
100
AcDbLine
 10
4.948046335391548
 20
6.283626674786828
 30
0.0
 11
4.545064132255972
 21
6.283626674786832
 31
0.0
  0
ARC
  5
17A
330
1F
100
AcDbEntity
  8
0
  6
Continuous
 62
     7
370
     5
100
AcDbCircle
 10
4.545064132255972
 20
6.241960008120165
 30
0.0
 40
0.041666666666667
100
AcDbArc
 50
90.0
 51
269.9999999999996
  0
LINE
  5
17B
330
1F
100
AcDbEntity
  8
0
  6
Continuous
 62
     7
370
     5
100
AcDbLine
 10
3.961730798922642
 20
6.762793341453502
 30
0.0
 11
3.961730798922642
 21
6.505644471651258
 31
0.0
  0
ARC
  5
17C
330
1F
100
AcDbEntity
  8
0
  6
Continuous
 62
     7
370
     5
100
AcDbCircle
 10
4.003397465589308
 20
6.505644471651258
 30
0.0
 40
0.041666666666667
100
AcDbArc
 50
180.0
 51
0.0
  0
LINE
  5
17D
330
1F
100
AcDbEntity
  8
0
  6
Continuous
 62
     7
370
     5
100
AcDbLine
 10
4.045064132255975
 20
6.505644471651258
 30
0.0
 11
4.045064132255975
 21
6.762793341453502
 31
0.0
  0
ARC
  5
17E
330
1F
100
AcDbEntity
  8
0
  6
Continuous
 62
     7
370
     5
100
AcDbCircle
 10
4.003397465589308
 20
6.762793341453502
 30
0.0
 40
0.041666666666667
100
AcDbArc
 50
0.0
 51
180.0
  0
LINE
  5
17F
330
1F
100
AcDbEntity
  8
0
  6
Continuous
 62
     7
370
     5
100
AcDbLine
 10
3.961730798922642
 20
6.929460008120168
 30
0.0
 11
3.961730798922642
 21
7.186608877922413
 31
0.0
  0
ARC
  5
180
330
1F
100
AcDbEntity
  8
0
  6
Continuous
 62
     7
370
     5
100
AcDbCircle
 10
4.003397465589308
 20
6.929460008120168
 30
0.0
 40
0.041666666666667
100
AcDbArc
 50
180.0
 51
0.0
  0
LINE
  5
181
330
1F
100
AcDbEntity
  8
0
  6
Continuous
 62
     7
370
     5
100
AcDbLine
 10
4.045064132255975
 20
7.186608877922413
 30
0.0
 11
4.045064132255975
 21
6.929460008120168
 31
0.0
  0
ARC
  5
182
330
1F
100
AcDbEntity
  8
0
  6
Continuous
 62
     7
370
     5
100
AcDbCircle
 10
4.003397465589308
 20
7.186608877922413
 30
0.0
 40
0.041666666666667
100
AcDbArc
 50
0.0
 51
180.0
  0
LINE
  5
183
330
1F
100
AcDbEntity
  8
0
  6
Continuous
 62
     7
370
     5
100
AcDbLine
 10
4.961730798922646
 20
6.762793341453498
 30
0.0
 11
4.961730798922643
 21
6.505644471651254
 31
0.0
  0
ARC
  5
184
330
1F
100
AcDbEntity
  8
0
  6
Continuous
 62
     7
370
     5
100
AcDbCircle
 10
4.92006413225598
 20
6.762793341453498
 30
0.0
 40
0.0416666666666679
100
AcDbArc
 50
0.0
 51
179.9999999999988
  0
LINE
  5
185
330
1F
100
AcDbEntity
  8
0
  6
Continuous
 62
     7
370
     5
100
AcDbLine
 10
4.878397465589311
 20
6.505644471651255
 30
0.0
 11
4.878397465589312
 21
6.762793341453499
 31
0.0
  0
ARC
  5
186
330
1F
100
AcDbEntity
  8
0
  6
Continuous
 62
     7
370
     5
100
AcDbCircle
 10
4.920064132255977
 20
6.505644471651255
 30
0.0
 40
0.0416666666666661
100
AcDbArc
 50
180.0
 51
359.9999999999996
  0
LINE
  5
187
330
1F
100
AcDbEntity
  8
0
  6
Continuous
 62
     7
370
     5
100
AcDbLine
 10
4.378397465589313
 20
7.346126674786837
 30
0.0
 11
4.121248595787069
 21
7.346126674786838
 31
0.0
  0
ARC
  5
188
330
1F
100
AcDbEntity
  8
0
  6
Continuous
 62
     7
370
     5
100
AcDbCircle
 10
4.121248595787069
 20
7.304460008120171
 30
0.0
 40
0.041666666666667
100
AcDbArc
 50
90.0
 51
270.0000000000008
  0
LINE
  5
189
330
1F
100
AcDbEntity
  8
0
  6
Continuous
 62
     7
370
     5
100
AcDbLine
 10
4.121248595787069
 20
7.262793341453505
 30
0.0
 11
4.378397465589312
 21
7.262793341453504
 31
0.0
  0
ARC
  5
18A
330
1F
100
AcDbEntity
  8
0
  6
Continuous
 62
     7
370
     5
100
AcDbCircle
 10
4.378397465589312
 20
7.30446000812017
 30
0.0
 40
0.041666666666667
100
AcDbArc
 50
270.0000000000008
 51
89.99999999999877
  0
LINE
  5
18B
330
1F
100
AcDbEntity
  8
0
  6
Continuous
 62
     7
370
     5
100
AcDbLine
 10
4.961730798922647
 20
6.929460008120165
 30
0.0
 11
4.96173079892265
 21
7.186608877922409
 31
0.0
  0
ARC
  5
18C
330
1F
100
AcDbEntity
  8
0
  6
Continuous
 62
     7
370
     5
100
AcDbCircle
 10
4.920064132255983
 20
7.186608877922409
 30
0.0
 40
0.041666666666667
100
AcDbArc
 50
359.9999999999996
 51
180.0
  0
LINE
  5
18D
330
1F
100
AcDbEntity
  8
0
  6
Continuous
 62
     7
370
     5
100
AcDbLine
 10
4.878397465589316
 20
7.186608877922409
 30
0.0
 11
4.878397465589314
 21
6.929460008120165
 31
0.0
  0
ARC
  5
18E
330
1F
100
AcDbEntity
  8
0
  6
Continuous
 62
     7
370
     5
100
AcDbCircle
 10
4.920064132255981
 20
6.929460008120165
 30
0.0
 40
0.041666666666667
100
AcDbArc
 50
180.0
 51
0.0
  0
LINE
  5
18F
330
1F
100
AcDbEntity
  8
0
  6
Continuous
 62
     7
370
     5
100
AcDbLine
 10
4.545064132255973
 20
6.346126674786832
 30
0.0
 11
4.802213002058216
 21
6.346126674786829
 31
0.0
  0
ARC
  5
190
330
1F
100
AcDbEntity
  8
0
  6
Continuous
 62
     7
370
     5
100
AcDbCircle
 10
4.802213002058217
 20
6.387793341453495
 30
0.0
 40
0.0416666666666679
100
AcDbArc
 50
269.9999999999996
 51
90.0
  0
LINE
  5
191
330
1F
100
AcDbEntity
  8
0
  6
Continuous
 62
     7
370
     5
100
AcDbLine
 10
4.802213002058217
 20
6.429460008120163
 30
0.0
 11
4.545064132255973
 21
6.429460008120165
 31
0.0
  0
ARC
  5
192
330
1F
100
AcDbEntity
  8
0
  6
Continuous
 62
     7
370
     5
100
AcDbCircle
 10
4.545064132255973
 20
6.387793341453499
 30
0.0
 40
0.041666666666667
100
AcDbArc
 50
90.0
 51
270.0000000000008
  0
LINE
  5
193
330
1F
100
AcDbEntity
  8
0
  6
Continuous
 62
     7
370
     5
100
AcDbLine
 10
4.107564132255975
 20
6.762793341453502
 30
0.0
 11
4.107564132255975
 21
6.65147780498459
 31
0.0
  0
ARC
  5
194
330
1F
100
AcDbEntity
  8
0
  6
Continuous
 62
     7
370
     5
100
AcDbCircle
 10
4.149230798922642
 20
6.65147780498459
 30
0.0
 40
0.041666666666667
100
AcDbArc
 50
180.0
 51
0.0
  0
LINE
  5
195
330
1F
100
AcDbEntity
  8
0
  6
Continuous
 62
     7
370
     5
100
AcDbLine
 10
4.190897465589309
 20
6.65147780498459
 30
0.0
 11
4.190897465589309
 21
6.762793341453502
 31
0.0
  0
ARC
  5
196
330
1F
100
AcDbEntity
  8
0
  6
Continuous
 62
     7
370
     5
100
AcDbCircle
 10
4.149230798922642
 20
6.762793341453502
 30
0.0
 40
0.041666666666667
100
AcDbArc
 50
0.0
 51
180.0
  0
LINE
  5
197
330
1F
100
AcDbEntity
  8
0
  6
Continuous
 62
     7
370
     5
100
AcDbLine
 10
4.107564132255975
 20
6.929460008120168
 30
0.0
 11
4.107564132255975
 21
7.040775544589079
 31
0.0
  0
ARC
  5
198
330
1F
100
AcDbEntity
  8
0
  6
Continuous
 62
     7
370
     5
100
AcDbCircle
 10
4.149230798922642
 20
6.929460008120168
 30
0.0
 40
0.041666666666667
100
AcDbArc
 50
180.0
 51
0.0
  0
LINE
  5
199
330
1F
100
AcDbEntity
  8
0
  6
Continuous
 62
     7
370
     5
100
AcDbLine
 10
4.190897465589309
 20
7.040775544589079
 30
0.0
 11
4.190897465589309
 21
6.929460008120168
 31
0.0
  0
ARC
  5
19A
330
1F
100
AcDbEntity
  8
0
  6
Continuous
 62
     7
370
     5
100
AcDbCircle
 10
4.149230798922642
 20
7.040775544589079
 30
0.0
 40
0.041666666666667
100
AcDbArc
 50
0.0
 51
180.0
  0
LINE
  5
19B
330
1F
100
AcDbEntity
  8
0
  6
Continuous
 62
     7
370
     5
100
AcDbLine
 10
4.815897465589312
 20
6.762793341453499
 30
0.0
 11
4.815897465589312
 21
6.651477804984589
 31
0.0
  0
ARC
  5
19C
330
1F
100
AcDbEntity
  8
0
  6
Continuous
 62
     7
370
     5
100
AcDbCircle
 10
4.774230798922646
 20
6.762793341453499
 30
0.0
 40
0.041666666666667
100
AcDbArc
 50
0.0
 51
180.0
  0
LINE
  5
19D
330
1F
100
AcDbEntity
  8
0
  6
Continuous
 62
     7
370
     5
100
AcDbLine
 10
4.732564132255978
 20
6.651477804984589
 30
0.0
 11
4.732564132255979
 21
6.762793341453499
 31
0.0
  0
ARC
  5
19E
330
1F
100
AcDbEntity
  8
0
  6
Continuous
 62
     7
370
     5
100
AcDbCircle
 10
4.774230798922645
 20
6.651477804984589
 30
0.0
 40
0.041666666666667
100
AcDbArc
 50
179.9999999999988
 51
0.0
  0
LINE
  5
19F
330
1F
100
AcDbEntity
  8
0
  6
Continuous
 62
     7
370
     5
100
AcDbLine
 10
4.378397465589312
 20
7.200293341453504
 30
0.0
 11
4.267081929120402
 21
7.200293341453504
 31
0.0
  0
ARC
  5
1A0
330
1F
100
AcDbEntity
  8
0
  6
Continuous
 62
     7
370
     5
100
AcDbCircle
 10
4.267081929120402
 20
7.158626674786838
 30
0.0
 40
0.0416666666666679
100
AcDbArc
 50
90.0
 51
270.0000000000008
  0
LINE
  5
1A1
330
1F
100
AcDbEntity
  8
0
  6
Continuous
 62
     7
370
     5
100
AcDbLine
 10
4.267081929120402
 20
7.11696000812017
 30
0.0
 11
4.378397465589312
 21
7.11696000812017
 31
0.0
  0
ARC
  5
1A2
330
1F
100
AcDbEntity
  8
0
  6
Continuous
 62
     7
370
     5
100
AcDbCircle
 10
4.378397465589312
 20
7.158626674786837
 30
0.0
 40
0.041666666666667
100
AcDbArc
 50
270.0000000000008
 51
90.0
  0
LINE
  5
1A3
330
1F
100
AcDbEntity
  8
0
  6
Continuous
 62
     7
370
     5
100
AcDbLine
 10
4.815897465589314
 20
6.929460008120166
 30
0.0
 11
4.815897465589315
 21
7.040775544589077
 31
0.0
  0
ARC
  5
1A4
330
1F
100
AcDbEntity
  8
0
  6
Continuous
 62
     7
370
     5
100
AcDbCircle
 10
4.774230798922648
 20
7.040775544589077
 30
0.0
 40
0.041666666666667
100
AcDbArc
 50
0.0
 51
180.0
  0
LINE
  5
1A5
330
1F
100
AcDbEntity
  8
0
  6
Continuous
 62
     7
370
     5
100
AcDbLine
 10
4.732564132255981
 20
7.040775544589077
 30
0.0
 11
4.732564132255981
 21
6.929460008120166
 31
0.0
  0
ARC
  5
1A6
330
1F
100
AcDbEntity
  8
0
  6
Continuous
 62
     7
370
     5
100
AcDbCircle
 10
4.774230798922647
 20
6.929460008120166
 30
0.0
 40
0.041666666666667
100
AcDbArc
 50
180.0
 51
0.0
  0
LINE
  5
1A7
330
1F
100
AcDbEntity
  8
0
  6
Continuous
 62
     7
370
     5
100
AcDbLine
 10
4.545064132255975
 20
6.491960008120165
 30
0.0
 11
4.656379668724885
 21
6.491960008120164
 31
0.0
  0
ARC
  5
1A8
330
1F
100
AcDbEntity
  8
0
  6
Continuous
 62
     7
370
     5
100
AcDbCircle
 10
4.656379668724885
 20
6.53362667478683
 30
0.0
 40
0.0416666666666679
100
AcDbArc
 50
270.0000000000008
 51
89.99999999999877
  0
LINE
  5
1A9
330
1F
100
AcDbEntity
  8
0
  6
Continuous
 62
     7
370
     5
100
AcDbLine
 10
4.656379668724886
 20
6.575293341453498
 30
0.0
 11
4.545064132255975
 21
6.575293341453499
 31
0.0
  0
ARC
  5
1AA
330
1F
100
AcDbEntity
  8
0
  6
Continuous
 62
     7
370
     5
100
AcDbCircle
 10
4.545064132255975
 20
6.533626674786833
 30
0.0
 40
0.0416666666666679
100
AcDbArc
 50
90.0
 51
270.0000000000008
  0
LINE
  5
1AB
330
1F
100
AcDbEntity
  8
0
  6
Continuous
 62
     7
370
     5
100
AcDbLine
 10
4.492980798922644
 20
6.721126674786835
 30
0.0
 11
4.430480798922644
 21
6.721126674786835
 31
0.0
  0
LINE
  5
1AC
330
1F
100
AcDbEntity
  8
0
  6
Continuous
 62
     7
370
     5
100
AcDbLine
 10
4.336730798922644
 20
6.814876674786835
 30
0.0
 11
4.336730798922644
 21
6.877376674786836
 31
0.0
  0
ARC
  5
1AD
330
1F
100
AcDbEntity
  8
0
  6
Continuous
 62
     7
370
     5
100
AcDbCircle
 10
4.295064132255978
 20
6.877376674786836
 30
0.0
 40
0.041666666666667
100
AcDbArc
 50
0.0
 51
180.0
  0
LINE
  5
1AE
330
1F
100
AcDbEntity
  8
0
  6
Continuous
 62
     7
370
     5
100
AcDbLine
 10
4.253397465589311
 20
6.877376674786836
 30
0.0
 11
4.253397465589311
 21
6.814876674786836
 31
0.0
  0
ARC
  5
1AF
330
1F
100
AcDbEntity
  8
0
  6
Continuous
 62
     7
370
     5
100
AcDbCircle
 10
4.295064132255978
 20
6.814876674786836
 30
0.0
 40
0.041666666666667
100
AcDbArc
 50
180.0
 51
359.9999999999996
  0
LINE
  5
1B0
330
1F
100
AcDbEntity
  8
0
  6
Continuous
 62
     7
370
     5
100
AcDbLine
 10
4.430480798922645
 20
6.971126674786835
 30
0.0
 11
4.492980798922645
 21
6.971126674786835
 31
0.0
  0
ARC
  5
1B1
330
1F
100
AcDbEntity
  8
0
  6
Continuous
 62
     7
370
     5
100
AcDbCircle
 10
4.492980798922646
 20
7.012793341453501
 30
0.0
 40
0.041666666666667
100
AcDbArc
 50
269.9999999999996
 51
90.0
  0
LINE
  5
1B2
330
1F
100
AcDbEntity
  8
0
  6
Continuous
 62
     7
370
     5
100
AcDbLine
 10
4.492980798922646
 20
7.054460008120168
 30
0.0
 11
4.430480798922646
 21
7.054460008120169
 31
0.0
  0
ARC
  5
1B3
330
1F
100
AcDbEntity
  8
0
  6
Continuous
 62
     7
370
     5
100
AcDbCircle
 10
4.430480798922645
 20
7.012793341453503
 30
0.0
 40
0.0416666666666679
100
AcDbArc
 50
89.99999999999877
 51
270.0000000000008
  0
LINE
  5
1B4
330
1F
100
AcDbEntity
  8
0
  6
Continuous
 62
     7
370
     5
100
AcDbLine
 10
4.586730798922644
 20
6.877376674786834
 30
0.0
 11
4.586730798922644
 21
6.814876674786834
 31
0.0
  0
ARC
  5
1B5
330
1F
100
AcDbEntity
  8
0
  6
Continuous
 62
     7
370
     5
100
AcDbCircle
 10
4.62839746558931
 20
6.814876674786833
 30
0.0
 40
0.041666666666667
100
AcDbArc
 50
179.9999999999988
 51
0.0
  0
LINE
  5
1B6
330
1F
100
AcDbEntity
  8
0
  6
Continuous
 62
     7
370
     5
100
AcDbLine
 10
4.670064132255977
 20
6.814876674786833
 30
0.0
 11
4.670064132255978
 21
6.877376674786832
 31
0.0
  0
ARC
  5
1B7
330
1F
100
AcDbEntity
  8
0
  6
Continuous
 62
     7
370
     5
100
AcDbCircle
 10
4.628397465589311
 20
6.877376674786834
 30
0.0
 40
0.041666666666667
100
AcDbArc
 50
359.9999999999984
 51
180.0
  0
LINE
  5
1B8
330
1F
100
AcDbEntity
  8
0
  6
Continuous
 62
     7
370
     5
100
AcDbLine
 10
4.351730798922645
 20
7.674460008120168
 30
0.0
 11
4.571730798922645
 21
7.674460008120168
 31
0.0
  0
ARC
  5
1B9
330
1F
100
AcDbEntity
  8
0
  6
Continuous
 62
     7
370
     5
100
AcDbCircle
 10
4.571730798922645
 20
7.716126674786835
 30
0.0
 40
0.041666666666667
100
AcDbArc
 50
270.0000000000008
 51
90.0
  0
LINE
  5
1BA
330
1F
100
AcDbEntity
  8
0
  6
Continuous
 62
     7
370
     5
100
AcDbLine
 10
4.571730798922645
 20
7.757793341453502
 30
0.0
 11
4.351730798922645
 21
7.757793341453502
 31
0.0
  0
ARC
  5
1BB
330
1F
100
AcDbEntity
  8
0
  6
Continuous
 62
     7
370
     5
100
AcDbCircle
 10
4.351730798922645
 20
7.716126674786835
 30
0.0
 40
0.041666666666667
100
AcDbArc
 50
90.0
 51
270.0000000000008
  0
CIRCLE
  5
1BC
330
1F
100
AcDbEntity
  8
0
  6
Continuous
 62
     7
370
     5
100
AcDbCircle
 10
3.628397465589311
 20
7.679460008120168
 30
0.0
 40
0.0697916666666663
  0
CIRCLE
  5
1BD
330
1F
100
AcDbEntity
  8
0
  6
Continuous
 62
     7
370
     5
100
AcDbCircle
 10
5.295064132255981
 20
7.679460008120165
 30
0.0
 40
0.0697916666666654
  0
CIRCLE
  5
1BE
330
1F
100
AcDbEntity
  8
0
  6
Continuous
 62
     7
370
     5
100
AcDbCircle
 10
5.295064132255972
 20
6.012793341453496
 30
0.0
 40
0.0697916666666672
  0
CIRCLE
  5
1BF
330
1F
100
AcDbEntity
  8
0
  6
Continuous
 62
     7
370
     5
100
AcDbCircle
 10
3.628397465589303
 20
6.01279334145351
 30
0.0
 40
0.0697916666666663
  0
ARC
  5
1C0
330
1F
100
AcDbEntity
  8
0
  6
Continuous
 62
     7
370
     5
100
AcDbCircle
 10
3.857564132255976
 20
6.929460008120168
 30
0.0
 40
0.0416666666666674
100
AcDbArc
 50
180.0
 51
0.0
  0
ARC
  5
1C1
330
1F
100
AcDbEntity
  8
0
  6
Continuous
 62
     7
370
     5
100
AcDbCircle
 10
4.378397465589303
 20
6.096126674786834
 30
0.0
 40
0.041666666666667
100
AcDbArc
 50
270.0000000000008
 51
90.0
  0
ARC
  5
1C2
330
1F
100
AcDbEntity
  8
0
  6
Continuous
 62
     7
370
     5
100
AcDbCircle
 10
4.492980798922644
 20
6.679460008120169
 30
0.0
 40
0.041666666666667
100
AcDbArc
 50
270.0000000000008
 51
90.0
  0
ARC
  5
1C3
330
1F
100
AcDbEntity
  8
0
  6
Continuous
 62
     7
370
     5
100
AcDbCircle
 10
4.430480798922644
 20
6.679460008120169
 30
0.0
 40
0.041666666666667
100
AcDbArc
 50
90.0
 51
270.0000000000008
  0
LINE
  5
1C4
330
1F
100
AcDbEntity
  8
0
  6
Continuous
 62
     7
370
     5
100
AcDbLine
 10
4.430480798922644
 20
6.637793341453502
 30
0.0
 11
4.492980798922644
 21
6.637793341453502
 31
0.0
  0
LINE
  5
1C5
330
1F
100
AcDbEntity
  8
0
  6
Continuous
 62
     7
370
     5
100
AcDbLine
 10
4.488126962807923
 20
7.714754476281157
 30
0.0
 11
4.503083543049234
 21
7.714753582579122
 31
0.0
  0
LINE
  5
1C6
330
1F
100
AcDbEntity
  8
0
  6
Continuous
 62
     7
370
     5
100
AcDbLine
 10
4.499091365732371
 20
7.740032548382761
 30
0.0
 11
4.516485427162956
 21
7.696215048451974
 31
0.0
  0
LINE
  5
1C7
330
1F
100
AcDbEntity
  8
0
  6
Continuous
 62
     7
370
     5
100
AcDbLine
 10
4.516485427162956
 20
7.696215048451974
 30
0.0
 11
4.50992875730365
 21
7.696215440233324
 31
0.0
  0
LINE
  5
1C8
330
1F
100
AcDbEntity
  8
0
  6
Continuous
 62
     7
370
     5
100
AcDbLine
 10
4.50992875730365
 20
7.696215440233324
 30
0.0
 11
4.504944036147112
 21
7.709697725957156
 31
0.0
  0
LINE
  5
1C9
330
1F
100
AcDbEntity
  8
0
  6
Continuous
 62
     7
370
     5
100
AcDbLine
 10
4.504944036147112
 20
7.709697725957156
 30
0.0
 11
4.486265865517118
 21
7.709698842035756
 31
0.0
  0
LINE
  5
1CA
330
1F
100
AcDbEntity
  8
0
  6
Continuous
 62
     7
370
     5
100
AcDbLine
 10
4.486265865517118
 20
7.709698842035756
 30
0.0
 11
4.481279533179447
 21
7.69621715211328
 31
0.0
  0
LINE
  5
1CB
330
1F
100
AcDbEntity
  8
0
  6
Continuous
 62
     7
370
     5
100
AcDbLine
 10
4.481279533179447
 20
7.69621715211328
 30
0.0
 11
4.47472286332014
 21
7.69621754389463
 31
0.0
  0
LINE
  5
1CC
330
1F
100
AcDbEntity
  8
0
  6
Continuous
 62
     7
370
     5
100
AcDbLine
 10
4.503083543049234
 20
7.714753582579122
 30
0.0
 11
4.498827223283996
 21
7.726269701547483
 31
0.0
  0
LINE
  5
1CD
330
1F
100
AcDbEntity
  8
0
  6
Continuous
 62
     7
370
     5
100
AcDbLine
 10
4.492612906234873
 20
7.726884486381951
 30
0.0
 11
4.488126962807923
 21
7.714754476281157
 31
0.0
  0
LINE
  5
1CE
330
1F
100
AcDbEntity
  8
0
  6
Continuous
 62
     7
370
     5
100
AcDbLine
 10
4.47472286332014
 20
7.69621754389463
 30
0.0
 11
4.492122161089413
 21
7.740032964814345
 31
0.0
  0
SPLINE
  5
1CF
330
1F
100
AcDbEntity
  8
0
  6
Continuous
 62
     7
370
     5
100
AcDbSpline
210
0.0
220
0.0
230
1.0
 70
     8
 71
     3
 72
     9
 73
     5
 74
     0
 42
0.0000000001
 43
0.0000000001
 40
0.0
 40
0.0
 40
0.0
 40
0.0
 40
0.5599145935103068
 40
1.0
 40
1.0
 40
1.0
 40
1.0
 10
4.495606461314429
 20
7.73497701116487
 30
0.0
 10
4.495188602388842
 20
7.73341328338048
 30
0.0
 10
4.494442311918063
 20
7.730620486403021
 30
0.0
 10
4.493171966648993
 20
7.728026195811481
 30
0.0
 10
4.492612906234873
 20
7.726884486381951
 30
0.0
  0
SPLINE
  5
1D0
330
1F
100
AcDbEntity
  8
0
  6
Continuous
 62
     7
370
     5
100
AcDbSpline
210
0.0
220
0.0
230
1.0
 70
     8
 71
     3
 72
     9
 73
     5
 74
     0
 42
0.0000000001
 43
0.0000000001
 40
0.0
 40
0.0
 40
0.0
 40
0.0
 40
0.5600020731066997
 40
1.0
 40
1.0
 40
1.0
 40
1.0
 10
4.498827223283996
 20
7.726269701547483
 30
0.0
 10
4.498224174488385
 20
7.727894392484696
 30
0.0
 10
4.497147305625624
 20
7.730795615560888
 30
0.0
 10
4.496077273313481
 20
7.733699366688505
 30
0.0
 10
4.495606461314429
 20
7.734977011164871
 30
0.0
  0
LINE
  5
1D1
330
1F
100
AcDbEntity
  8
0
  6
Continuous
 62
     7
370
     5
100
AcDbLine
 10
4.492122161089413
 20
7.740032964814345
 30
0.0
 11
4.499091365732371
 21
7.740032548382761
 31
0.0
  0
LINE
  5
1D2
330
1F
100
AcDbEntity
  8
0
  6
Continuous
 62
     7
370
     5
100
AcDbLine
 10
4.520040248171015
 20
7.696214836040399
 30
0.0
 11
4.520042866340358
 21
7.740031296465649
 31
0.0
  0
LINE
  5
1D3
330
1F
100
AcDbEntity
  8
0
  6
Continuous
 62
     7
370
     5
100
AcDbLine
 10
4.520042866340358
 20
7.740031296465649
 30
0.0
 11
4.529338064976244
 21
7.740030741048715
 31
0.0
  0
LINE
  5
1D4
330
1F
100
AcDbEntity
  8
0
  6
Continuous
 62
     7
370
     5
100
AcDbLine
 10
4.529338064976244
 20
7.740030741048715
 30
0.0
 11
4.539131734524995
 21
7.709283148351071
 31
0.0
  0
SPLINE
  5
1D5
330
1F
100
AcDbEntity
  8
0
  6
Continuous
 62
     7
370
     5
100
AcDbSpline
210
0.0
220
0.0
230
1.0
 70
     8
 71
     3
 72
     9
 73
     5
 74
     0
 42
0.0000000001
 43
0.0000000001
 40
0.0
 40
0.0
 40
0.0
 40
0.0
 40
0.5600018537205518
 40
1.0
 40
1.0
 40
1.0
 40
1.0
 10
4.539131734524995
 20
7.709283148351071
 30
0.0
 10
4.539507471281642
 20
7.708084341956307
 30
0.0
 10
4.540178427554645
 20
7.705943623337611
 30
0.0
 10
4.540822749975513
 20
7.70379474546665
 30
0.0
 10
4.5411062506463
 20
7.702849243186847
 30
0.0
  0
LINE
  5
1D6
330
1F
100
AcDbEntity
  8
0
  6
Continuous
 62
     7
370
     5
100
AcDbLine
 10
4.552957875674231
 20
7.740029329691804
 30
0.0
 11
4.562174078287715
 21
7.740028778995127
 31
0.0
  0
LINE
  5
1D7
330
1F
100
AcDbEntity
  8
0
  6
Continuous
 62
     7
370
     5
100
AcDbLine
 10
4.562174078287715
 20
7.740028778995127
 30
0.0
 11
4.562171460118371
 21
7.696212318569876
 31
0.0
  0
LINE
  5
1D8
330
1F
100
AcDbEntity
  8
0
  6
Continuous
 62
     7
370
     5
100
AcDbLine
 10
4.562171460118371
 20
7.696212318569876
 30
0.0
 11
4.555992215699426
 21
7.696212687798886
 31
0.0
  0
LINE
  5
1D9
330
1F
100
AcDbEntity
  8
0
  6
Continuous
 62
     7
370
     5
100
AcDbLine
 10
4.555992215699426
 20
7.696212687798886
 30
0.0
 11
4.555994431073486
 21
7.73328815431256
 31
0.0
  0
LINE
  5
1DA
330
1F
100
AcDbEntity
  8
0
  6
Continuous
 62
     7
370
     5
100
AcDbLine
 10
4.555994431073486
 20
7.73328815431256
 30
0.0
 11
4.544300804384033
 21
7.696213386396956
 31
0.0
  0
LINE
  5
1DB
330
1F
100
AcDbEntity
  8
0
  6
Continuous
 62
     7
370
     5
100
AcDbLine
 10
4.544300804384033
 20
7.696213386396956
 30
0.0
 11
4.537840685218773
 21
7.696213772409103
 31
0.0
  0
LINE
  5
1DC
330
1F
100
AcDbEntity
  8
0
  6
Continuous
 62
     7
370
     5
100
AcDbLine
 10
4.537840685218773
 20
7.696213772409103
 30
0.0
 11
4.526221707964021
 21
7.733289933325062
 31
0.0
  0
LINE
  5
1DD
330
1F
100
AcDbEntity
  8
0
  6
Continuous
 62
     7
370
     5
100
AcDbLine
 10
4.526221707964021
 20
7.733289933325062
 30
0.0
 11
4.526219492589961
 21
7.696214466811388
 31
0.0
  0
LINE
  5
1DE
330
1F
100
AcDbEntity
  8
0
  6
Continuous
 62
     7
370
     5
100
AcDbLine
 10
4.526219492589961
 20
7.696214466811388
 30
0.0
 11
4.520040248171015
 21
7.696214836040399
 31
0.0
  0
SPLINE
  5
1DF
330
1F
100
AcDbEntity
  8
0
  6
Continuous
 62
     7
370
     5
100
AcDbSpline
210
0.0
220
0.0
230
1.0
 70
     8
 71
     3
 72
     9
 73
     5
 74
     0
 42
0.0000000001
 43
0.0000000001
 40
0.0
 40
0.0
 40
0.0
 40
0.0
 40
0.5599969211802974
 40
1.0
 40
1.0
 40
1.0
 40
1.0
 10
4.5411062506463
 20
7.702849243186847
 30
0.0
 10
4.541500153392086
 20
7.704150841170641
 30
0.0
 10
4.542203555019645
 20
7.706475136063285
 30
0.0
 10
4.542935191518025
 20
7.708790690789417
 30
0.0
 10
4.543257113829889
 20
7.709809541998091
 30
0.0
  0
LINE
  5
1E0
330
1F
100
AcDbEntity
  8
0
  6
Continuous
 62
     7
370
     5
100
AcDbLine
 10
4.543257113829889
 20
7.709809541998091
 30
0.0
 11
4.552957875674231
 21
7.740029329691804
 31
0.0
  0
LINE
  5
1E1
330
1F
100
AcDbEntity
  8
0
  6
Continuous
 62
     7
370
     5
100
AcDbLine
 10
3.513814132255978
 20
5.898210008120169
 30
0.0
 11
5.409647465589311
 21
5.898210008120169
 31
0.0
  0
LINE
  5
1E2
330
1F
100
AcDbEntity
  8
0
  6
Continuous
 62
     7
370
     5
100
AcDbLine
 10
5.472147465589311
 20
5.835710008120168
 30
0.0
 11
5.47214746558931
 21
7.856543341453502
 31
0.0
  0
LINE
  5
1E3
330
1F
100
AcDbEntity
  8
0
  6
Continuous
 62
     7
370
     5
100
AcDbLine
 10
3.451314132255978
 20
5.835710008120168
 30
0.0
 11
5.472147465589311
 21
5.835710008120168
 31
0.0
  0
LINE
  5
1E4
330
1F
100
AcDbEntity
  8
0
  6
Continuous
 62
     7
370
     5
100
AcDbLine
 10
3.513814132255978
 20
7.794043341453502
 30
0.0
 11
3.513814132255978
 21
5.898210008120169
 31
0.0
  0
LINE
  5
1E5
330
1F
100
AcDbEntity
  8
0
  6
Continuous
 62
     7
370
     5
100
AcDbLine
 10
5.409647465589311
 20
7.794043341453502
 30
0.0
 11
3.513814132255978
 21
7.794043341453502
 31
0.0
  0
LINE
  5
1E6
330
1F
100
AcDbEntity
  8
0
  6
Continuous
 62
     7
370
     5
100
AcDbLine
 10
5.409647465589311
 20
5.898210008120169
 30
0.0
 11
5.409647465589311
 21
7.794043341453502
 31
0.0
  0
LINE
  5
1E7
330
1F
100
AcDbEntity
  8
0
  6
Continuous
 62
     7
370
     5
100
AcDbLine
 10
3.451314132255977
 20
7.856543341453502
 30
0.0
 11
3.451314132255978
 21
5.835710008120168
 31
0.0
  0
LINE
  5
1E8
330
1F
100
AcDbEntity
  8
0
  6
Continuous
 62
     7
370
     5
100
AcDbLine
 10
5.47214746558931
 20
7.856543341453502
 30
0.0
 11
3.451314132255977
 21
7.856543341453502
 31
0.0
  0
LINE
  5
1E9
330
1F
100
AcDbEntity
  8
0
  6
Continuous
 62
     7
370
     5
100
AcDbLine
 10
4.534647465589311
 20
7.63647025130983
 30
0.0
 11
4.534647465589311
 21
7.627376674786835
 31
0.0
  0
LINE
  5
1EA
330
1F
100
AcDbEntity
  8
0
  6
Continuous
 62
     7
370
     5
100
AcDbLine
 10
4.534647465589311
 20
7.627376674786835
 30
0.0
 11
4.517504222765722
 21
7.627376674786835
 31
0.0
  0
LINE
  5
1EB
330
1F
100
AcDbEntity
  8
0
  6
Continuous
 62
     7
370
     5
100
AcDbLine
 10
3.673032360123902
 20
6.914015204927792
 30
0.0
 11
3.680480798922644
 21
6.914015204927792
 31
0.0
  0
LINE
  5
1EC
330
1F
100
AcDbEntity
  8
0
  6
Continuous
 62
     7
370
     5
100
AcDbLine
 10
3.680480798922644
 20
6.914015204927792
 30
0.0
 11
3.680480798922644
 21
6.901900098629909
 31
0.0
  0
LINE
  5
1ED
330
1F
100
AcDbEntity
  8
0
  6
Continuous
 62
     7
370
     5
100
AcDbLine
 10
3.680480798922644
 20
6.79035325094376
 30
0.0
 11
3.680480798922644
 21
6.778238144645878
 31
0.0
  0
LINE
  5
1EE
330
1F
100
AcDbEntity
  8
0
  6
Continuous
 62
     7
370
     5
100
AcDbLine
 10
3.680480798922644
 20
6.778238144645878
 30
0.0
 11
3.673032360123902
 21
6.778238144645878
 31
0.0
  0
LINE
  5
1EF
330
1F
100
AcDbEntity
  8
0
  6
Continuous
 62
     7
370
     5
100
AcDbLine
 10
4.607564132255978
 20
6.064876674786835
 30
0.0
 11
4.609214190196423
 21
6.054460008120164
 31
0.0
  0
ARC
  5
1F0
330
1F
100
AcDbEntity
  8
0
  6
Continuous
 62
     7
370
     5
100
AcDbCircle
 10
4.6695510121332
 20
5.939876674786835
 30
0.0
 40
0.0416666666666664
100
AcDbArc
 50
228.5903778907305
 51
270.0000000000008
  0
ARC
  5
1F1
330
1F
100
AcDbEntity
  8
0
  6
Continuous
 62
     7
370
     5
100
AcDbCircle
 10
4.461730798922644
 20
5.971126674786836
 30
0.0
 40
0.0729166666666672
100
AcDbArc
 50
270.0000000000008
 51
301.002719133874
  0
LINE
  5
1F2
330
1F
100
AcDbEntity
  8
0
  6
Continuous
 62
     7
370
     5
100
AcDbLine
 10
4.534647465589311
 20
6.064876674786835
 30
0.0
 11
4.534647465589311
 21
6.055783098263836
 31
0.0
  0
LINE
  5
1F3
330
1F
100
AcDbEntity
  8
0
  6
Continuous
 62
     7
370
     5
100
AcDbLine
 10
4.534647465589311
 20
6.064876674786835
 30
0.0
 11
4.607564132255978
 21
6.064876674786835
 31
0.0
  0
LINE
  5
1F4
330
1F
100
AcDbEntity
  8
0
  6
Continuous
 62
     7
370
     5
100
AcDbLine
 10
4.315897465589311
 20
7.627376674786835
 30
0.0
 11
4.314247407648865
 21
7.637793341453504
 31
0.0
  0
ARC
  5
1F5
330
1F
100
AcDbEntity
  8
0
  6
Continuous
 62
     7
370
     5
100
AcDbCircle
 10
4.253910585712088
 20
7.752376674786836
 30
0.0
 40
0.0416666666666661
100
AcDbArc
 50
48.59037789072884
 51
90.0
  0
ARC
  5
1F6
330
1F
100
AcDbEntity
  8
0
  6
Continuous
 62
     7
370
     5
100
AcDbCircle
 10
4.461730798922644
 20
7.721126674786835
 30
0.0
 40
0.072916666666667
100
AcDbArc
 50
90.0
 51
121.0027191338736
  0
LINE
  5
1F7
330
1F
100
AcDbEntity
  8
0
  6
Continuous
 62
     7
370
     5
100
AcDbLine
 10
4.388814132255978
 20
7.627376674786835
 30
0.0
 11
4.388814132255978
 21
7.636470251309832
 31
0.0
  0
LINE
  5
1F8
330
1F
100
AcDbEntity
  8
0
  6
Continuous
 62
     7
370
     5
100
AcDbLine
 10
4.388814132255978
 20
7.627376674786835
 30
0.0
 11
4.315897465589311
 21
7.627376674786835
 31
0.0
  0
ARC
  5
1F9
330
1F
100
AcDbEntity
  8
0
  6
Continuous
 62
     7
370
     5
100
AcDbCircle
 10
5.142038453533787
 20
5.939876674786835
 30
0.0
 40
0.0416666666666666
100
AcDbArc
 50
270.0000000000008
 51
312.2692354988763
  0
ARC
  5
1FA
330
1F
100
AcDbEntity
  8
0
  6
Continuous
 62
     7
370
     5
100
AcDbCircle
 10
5.367980798922644
 20
6.165819020175693
 30
0.0
 40
0.0416666666666673
100
AcDbArc
 50
317.7307645012895
 51
0.0
  0
ARC
  5
1FB
330
1F
100
AcDbEntity
  8
0
  6
Continuous
 62
     7
370
     5
100
AcDbCircle
 10
3.586730798922644
 20
6.846126674786834
 30
0.0
 40
0.0678885301409562
100
AcDbArc
 50
157.0178879355105
 51
202.9821120644889
  0
LINE
  5
1FC
330
1F
100
AcDbEntity
  8
0
  6
Continuous
 62
     7
370
     5
100
AcDbLine
 10
5.253397465589315
 20
6.993610066060613
 30
0.0
 11
5.242980798922644
 21
6.991960008120168
 31
0.0
  0
ARC
  5
1FD
330
1F
100
AcDbEntity
  8
0
  6
Continuous
 62
     7
370
     5
100
AcDbCircle
 10
5.367980798922644
 20
7.053946887997391
 30
0.0
 40
0.0416666666666676
100
AcDbArc
 50
318.5903778907303
 51
0.0
  0
ARC
  5
1FE
330
1F
100
AcDbEntity
  8
0
  6
Continuous
 62
     7
370
     5
100
AcDbCircle
 10
5.367980798922644
 20
6.63830646157628
 30
0.0
 40
0.041666666666667
100
AcDbArc
 50
0.0
 51
41.40962210926955
  0
LINE
  5
1FF
330
1F
100
AcDbEntity
  8
0
  6
Continuous
 62
     7
370
     5
100
AcDbLine
 10
5.253397465589312
 20
6.698643283513057
 30
0.0
 11
5.242980798922644
 21
6.700293341453503
 31
0.0
  0
LINE
  5
200
330
1F
100
AcDbEntity
  8
0
  6
Continuous
 62
     7
370
     5
100
AcDbLine
 10
5.250429237721384
 20
6.778238144645879
 30
0.0
 11
5.242980798922644
 21
6.778238144645879
 31
0.0
  0
ARC
  5
201
330
1F
100
AcDbEntity
  8
0
  6
Continuous
 62
     7
370
     5
100
AcDbCircle
 10
5.336730798922644
 20
6.846126674786836
 30
0.0
 40
0.0678885301409574
100
AcDbArc
 50
337.0178879355119
 51
22.98211206448831
  0
LINE
  5
202
330
1F
100
AcDbEntity
  8
0
  6
Continuous
 62
     7
370
     5
100
AcDbLine
 10
5.242980798922644
 20
6.914015204927792
 30
0.0
 11
5.25042923772139
 21
6.914015204927792
 31
0.0
  0
LINE
  5
203
330
1F
100
AcDbEntity
  8
0
  6
Continuous
 62
     7
370
     5
100
AcDbLine
 10
5.242980798922644
 20
6.700293341453503
 30
0.0
 11
5.242980798922644
 21
6.778238144645879
 31
0.0
  0
LINE
  5
204
330
1F
100
AcDbEntity
  8
0
  6
Continuous
 62
     7
370
     5
100
AcDbLine
 10
5.242980798922644
 20
6.991960008120168
 30
0.0
 11
5.242980798922644
 21
6.914015204927792
 31
0.0
  0
ARC
  5
205
330
1F
100
AcDbEntity
  8
0
  6
Continuous
 62
     7
370
     5
100
AcDbCircle
 10
4.461730798922644
 20
7.721126674786835
 30
0.0
 40
0.072916666666667
100
AcDbArc
 50
58.99728086612637
 51
90.0
  0
ARC
  5
206
330
1F
100
AcDbEntity
  8
0
  6
Continuous
 62
     7
370
     5
100
AcDbCircle
 10
5.367980798922644
 20
7.526434329397979
 30
0.0
 40
0.041666666666667
100
AcDbArc
 50
0.0
 51
42.26923549880292
  0
ARC
  5
207
330
1F
100
AcDbEntity
  8
0
  6
Continuous
 62
     7
370
     5
100
AcDbCircle
 10
5.142038453533787
 20
7.752376674786836
 30
0.0
 40
0.0416666666666665
100
AcDbArc
 50
47.73076450152045
 51
90.0
  0
LINE
  5
208
330
1F
100
AcDbEntity
  8
0
  6
Continuous
 62
     7
370
     5
100
AcDbLine
 10
3.670064132255975
 20
6.698643283513057
 30
0.0
 11
3.680480798922644
 21
6.700293341453503
 31
0.0
  0
ARC
  5
209
330
1F
100
AcDbEntity
  8
0
  6
Continuous
 62
     7
370
     5
100
AcDbCircle
 10
3.555480798922645
 20
6.63830646157628
 30
0.0
 40
0.041666666666667
100
AcDbArc
 50
138.5903778907296
 51
180.0
  0
ARC
  5
20A
330
1F
100
AcDbEntity
  8
0
  6
Continuous
 62
     7
370
     5
100
AcDbCircle
 10
3.555480798922645
 20
7.053946887997391
 30
0.0
 40
0.041666666666667
100
AcDbArc
 50
180.0
 51
221.4096221092721
  0
LINE
  5
20B
330
1F
100
AcDbEntity
  8
0
  6
Continuous
 62
     7
370
     5
100
AcDbLine
 10
3.680480798922644
 20
6.991960008120168
 30
0.0
 11
3.680480798922644
 21
6.914015204927792
 31
0.0
  0
LINE
  5
20C
330
1F
100
AcDbEntity
  8
0
  6
Continuous
 62
     7
370
     5
100
AcDbLine
 10
3.680480798922644
 20
6.700293341453503
 30
0.0
 11
3.680480798922644
 21
6.778238144645878
 31
0.0
  0
LINE
  5
20D
330
1F
100
AcDbEntity
  8
0
  6
Continuous
 62
     7
370
     5
100
AcDbLine
 10
3.670064132255975
 20
6.993610066060613
 30
0.0
 11
3.680480798922644
 21
6.991960008120168
 31
0.0
  0
LINE
  5
20E
330
1F
100
AcDbEntity
  8
0
  6
Continuous
 62
     7
370
     5
100
AcDbLine
 10
4.51750422276571
 20
6.064876674786835
 30
0.0
 11
4.534647465589311
 21
6.064876674786835
 31
0.0
  0
ARC
  5
20F
330
1F
100
AcDbEntity
  8
0
  6
Continuous
 62
     7
370
     5
100
AcDbCircle
 10
3.781423144311501
 20
5.939876674786835
 30
0.0
 40
0.0416666666666663
100
AcDbArc
 50
227.7307645011257
 51
270.0000000000008
  0
ARC
  5
210
330
1F
100
AcDbEntity
  8
0
  6
Continuous
 62
     7
370
     5
100
AcDbCircle
 10
3.555480798922645
 20
6.165819020175693
 30
0.0
 40
0.0416666666666675
100
AcDbArc
 50
180.0
 51
222.2692354986425
  0
LINE
  5
211
330
1F
100
AcDbEntity
  8
0
  6
Continuous
 62
     7
370
     5
100
AcDbLine
 10
4.405957375079573
 20
7.627376674786835
 30
0.0
 11
4.388814132255978
 21
7.627376674786835
 31
0.0
  0
LINE
  5
212
330
1F
100
AcDbEntity
  8
0
  6
Continuous
 62
     7
370
     5
100
AcDbLine
 10
5.242980798922644
 20
6.778238144645879
 30
0.0
 11
5.242980798922644
 21
6.790353250943755
 31
0.0
  0
LINE
  5
213
330
1F
100
AcDbEntity
  8
0
  6
Continuous
 62
     7
370
     5
100
AcDbLine
 10
5.242980798922644
 20
6.901900098629904
 30
0.0
 11
5.242980798922644
 21
6.914015204927792
 31
0.0
  0
LINE
  5
214
330
1F
100
AcDbEntity
  8
0
  6
Continuous
 62
     7
370
     5
100
AcDbLine
 10
4.388814132255978
 20
6.055783098263842
 30
0.0
 11
4.388814132255978
 21
6.064876674786835
 31
0.0
  0
LINE
  5
215
330
1F
100
AcDbEntity
  8
0
  6
Continuous
 62
     7
370
     5
100
AcDbLine
 10
4.388814132255978
 20
6.064876674786835
 30
0.0
 11
4.405957375079561
 21
6.064876674786835
 31
0.0
  0
ARC
  5
216
330
1F
100
AcDbEntity
  8
0
  6
Continuous
 62
     7
370
     5
100
AcDbCircle
 10
4.461730798922644
 20
5.971126674786836
 30
0.0
 40
0.0729166666666672
100
AcDbArc
 50
238.9972808661276
 51
270.0000000000008
  0
ARC
  5
217
330
1F
100
AcDbEntity
  8
0
  6
Continuous
 62
     7
370
     5
100
AcDbCircle
 10
4.6695510121332
 20
7.752376674786836
 30
0.0
 40
0.0416666666666663
100
AcDbArc
 50
90.0
 51
131.409622109272
  0
LINE
  5
218
330
1F
100
AcDbEntity
  8
0
  6
Continuous
 62
     7
370
     5
100
AcDbLine
 10
4.607564132255978
 20
7.627376674786835
 30
0.0
 11
4.609214190196423
 21
7.637793341453503
 31
0.0
  0
LINE
  5
219
330
1F
100
AcDbEntity
  8
0
  6
Continuous
 62
     7
370
     5
100
AcDbLine
 10
4.534647465589311
 20
7.627376674786835
 30
0.0
 11
4.607564132255978
 21
7.627376674786835
 31
0.0
  0
ARC
  5
21A
330
1F
100
AcDbEntity
  8
0
  6
Continuous
 62
     7
370
     5
100
AcDbCircle
 10
3.781423144311501
 20
7.752376674786836
 30
0.0
 40
0.0416666666666664
100
AcDbArc
 50
90.0
 51
132.2692354984086
  0
ARC
  5
21B
330
1F
100
AcDbEntity
  8
0
  6
Continuous
 62
     7
370
     5
100
AcDbCircle
 10
3.555480798922644
 20
7.526434329397979
 30
0.0
 40
0.0416666666666661
100
AcDbArc
 50
137.730764501118
 51
180.0
  0
ARC
  5
21C
330
1F
100
AcDbEntity
  8
0
  6
Continuous
 62
     7
370
     5
100
AcDbCircle
 10
4.253910585712088
 20
5.939876674786835
 30
0.0
 40
0.0416666666666664
100
AcDbArc
 50
270.0000000000008
 51
311.4096221092712
  0
LINE
  5
21D
330
1F
100
AcDbEntity
  8
0
  6
Continuous
 62
     7
370
     5
100
AcDbLine
 10
4.315897465589311
 20
6.064876674786835
 30
0.0
 11
4.314247407648866
 21
6.054460008120167
 31
0.0
  0
LINE
  5
21E
330
1F
100
AcDbEntity
  8
0
  6
Continuous
 62
     7
370
     5
100
AcDbLine
 10
4.388814132255978
 20
6.064876674786835
 30
0.0
 11
4.315897465589311
 21
6.064876674786835
 31
0.0
  0
ARC
  5
21F
330
1F
100
AcDbEntity
  8
0
  6
Continuous
 62
     7
370
     5
100
AcDbCircle
 10
3.440897465589312
 20
7.866960008120168
 30
0.0
 40
1.333333333333335
100
AcDbArc
 50
90.00000000000005
 51
180.0
  0
LINE
  5
220
330
1F
100
AcDbEntity
  8
0
  6
Continuous
 62
     7
370
     5
100
AcDbLine
 10
3.420064132255978
 20
7.887793341453502
 30
0.0
 11
3.420064132255977
 21
5.804460008120169
 31
0.0
  0
ARC
  5
221
330
1F
100
AcDbEntity
  8
0
  6
Continuous
 62
     7
370
     5
100
AcDbCircle
 10
5.482564132255976
 20
5.825293341453503
 30
0.0
 40
1.333333333333333
100
AcDbArc
 50
270.0000000000008
 51
0.0
  0
LINE
  5
222
330
1F
100
AcDbEntity
  8
0
  6
Continuous
 62
     7
370
     5
100
AcDbLine
 10
3.440897465589312
 20
4.491960008120167
 30
0.0
 11
5.482564132255976
 21
4.491960008120169
 31
0.0
  0
LINE
  5
223
330
1F
100
AcDbEntity
  8
0
  6
Continuous
 62
     7
370
     5
100
AcDbLine
 10
2.107564132255979
 20
7.866960008120168
 30
0.0
 11
2.107564132255978
 21
5.825293341453502
 31
0.0
  0
LINE
  5
224
330
1F
100
AcDbEntity
  8
0
  6
Continuous
 62
     7
370
     5
100
AcDbLine
 10
5.503397465589311
 20
7.887793341453502
 30
0.0
 11
3.420064132255978
 21
7.887793341453502
 31
0.0
  0
LINE
  5
225
330
1F
100
AcDbEntity
  8
0
  6
Continuous
 62
     7
370
     5
100
AcDbLine
 10
5.482564132255976
 20
9.200293341453503
 30
0.0
 11
3.440897465589312
 21
9.200293341453503
 31
0.0
  0
LINE
  5
226
330
1F
100
AcDbEntity
  8
0
  6
Continuous
 62
     7
370
     5
100
AcDbLine
 10
5.503397465589311
 20
5.804460008120169
 30
0.0
 11
5.503397465589311
 21
7.887793341453502
 31
0.0
  0
ARC
  5
227
330
1F
100
AcDbEntity
  8
0
  6
Continuous
 62
     7
370
     5
100
AcDbCircle
 10
5.482564132255976
 20
7.866960008120167
 30
0.0
 40
1.333333333333336
100
AcDbArc
 50
0.0000000000000382
 51
90.0
  0
LINE
  5
228
330
1F
100
AcDbEntity
  8
0
  6
Continuous
 62
     7
370
     5
100
AcDbLine
 10
6.815897465589309
 20
5.825293341453503
 30
0.0
 11
6.815897465589312
 21
7.866960008120168
 31
0.0
  0
ARC
  5
229
330
1F
100
AcDbEntity
  8
0
  6
Continuous
 62
     7
370
     5
100
AcDbCircle
 10
3.440897465589312
 20
5.825293341453503
 30
0.0
 40
1.333333333333335
100
AcDbArc
 50
180.0000000000008
 51
270.0000000000008
  0
LINE
  5
22A
330
1F
100
AcDbEntity
  8
0
  6
Continuous
 62
     7
370
     5
100
AcDbLine
 10
3.420064132255977
 20
5.804460008120169
 30
0.0
 11
5.503397465589311
 21
5.804460008120169
 31
0.0
  0
ARC
  5
22B
330
1F
100
AcDbEntity
  8
0
  6
Continuous
 62
     7
370
     5
100
AcDbCircle
 10
3.65964746558931
 20
6.721126674786844
 30
0.0
 40
0.0416666666666662
100
AcDbArc
 50
284.4775121859288
 51
0.0000000000003053
  0
ARC
  5
22C
330
1F
100
AcDbEntity
  8
0
  6
Continuous
 62
     7
370
     5
100
AcDbCircle
 10
4.336730798922638
 20
6.044043341453503
 30
0.0
 40
0.0416666666666661
100
AcDbArc
 50
89.99999999999877
 51
165.5224878140732
  0
LINE
  5
22D
330
1F
100
AcDbEntity
  8
0
  6
Continuous
 62
     7
370
     5
100
AcDbLine
 10
4.586730798922639
 20
6.085710008120168
 30
0.0
 11
4.504720555732975
 21
6.085710008120168
 31
0.0
  0
LINE
  5
22E
330
1F
100
AcDbEntity
  8
0
  6
Continuous
 62
     7
370
     5
100
AcDbLine
 10
4.418741042112297
 20
6.085710008120169
 30
0.0
 11
4.336730798922639
 21
6.085710008120169
 31
0.0
  0
ARC
  5
22F
330
1F
100
AcDbEntity
  8
0
  6
Continuous
 62
     7
370
     5
100
AcDbCircle
 10
4.586730798922639
 20
6.044043341453501
 30
0.0
 40
0.041666666666667
100
AcDbArc
 50
14.47751218592532
 51
90.0
  0
ARC
  5
230
330
1F
100
AcDbEntity
  8
0
  6
Continuous
 62
     7
370
     5
100
AcDbCircle
 10
5.263814132255977
 20
6.721126674786831
 30
0.0
 40
0.041666666666667
100
AcDbArc
 50
179.9999999999997
 51
255.5224878140728
  0
LINE
  5
231
330
1F
100
AcDbEntity
  8
0
  6
Continuous
 62
     7
370
     5
100
AcDbLine
 10
5.222147465589312
 20
6.971126674786832
 30
0.0
 11
5.22214746558931
 21
6.889116431597168
 31
0.0
  0
LINE
  5
232
330
1F
100
AcDbEntity
  8
0
  6
Continuous
 62
     7
370
     5
100
AcDbLine
 10
5.22214746558931
 20
6.803136917976491
 30
0.0
 11
5.22214746558931
 21
6.721126674786831
 31
0.0
  0
ARC
  5
233
330
1F
100
AcDbEntity
  8
0
  6
Continuous
 62
     7
370
     5
100
AcDbCircle
 10
5.263814132255978
 20
6.971126674786832
 30
0.0
 40
0.0416666666666661
100
AcDbArc
 50
104.4775121859256
 51
179.9999999999997
  0
ARC
  5
234
330
1F
100
AcDbEntity
  8
0
  6
Continuous
 62
     7
370
     5
100
AcDbCircle
 10
4.586730798922644
 20
7.648210008120169
 30
0.0
 40
0.0416666666666671
100
AcDbArc
 50
270.0000000000008
 51
345.5224878140731
  0
LINE
  5
235
330
1F
100
AcDbEntity
  8
0
  6
Continuous
 62
     7
370
     5
100
AcDbLine
 10
4.336730798922645
 20
7.606543341453502
 30
0.0
 11
4.418741042112309
 21
7.606543341453502
 31
0.0
  0
LINE
  5
236
330
1F
100
AcDbEntity
  8
0
  6
Continuous
 62
     7
370
     5
100
AcDbLine
 10
4.504720555732986
 20
7.606543341453502
 30
0.0
 11
4.586730798922644
 21
7.606543341453502
 31
0.0
  0
ARC
  5
237
330
1F
100
AcDbEntity
  8
0
  6
Continuous
 62
     7
370
     5
100
AcDbCircle
 10
4.336730798922645
 20
7.648210008120169
 30
0.0
 40
0.0416666666666677
100
AcDbArc
 50
194.477512185927
 51
270.0000000000008
  0
ARC
  5
238
330
1F
100
AcDbEntity
  8
0
  6
Continuous
 62
     7
370
     5
100
AcDbCircle
 10
4.253397465589311
 20
7.721126674786835
 30
0.0
 40
0.041666666666667
100
AcDbArc
 50
65.58966691671027
 51
90.0
  0
ARC
  5
239
330
1F
100
AcDbEntity
  8
0
  6
Continuous
 62
     7
370
     5
100
AcDbCircle
 10
3.659647465589312
 20
6.971126674786844
 30
0.0
 40
0.0416666666666666
100
AcDbArc
 50
0.0000000000003053
 51
75.52248781407468
  0
LINE
  5
23A
330
1F
100
AcDbEntity
  8
0
  6
Continuous
 62
     7
370
     5
100
AcDbLine
 10
3.701314132255976
 20
6.721126674786844
 30
0.0
 11
3.701314132255978
 21
6.803136917976496
 31
0.0
  0
LINE
  5
23B
330
1F
100
AcDbEntity
  8
0
  6
Continuous
 62
     7
370
     5
100
AcDbLine
 10
3.701314132255978
 20
6.889116431597173
 30
0.0
 11
3.701314132255979
 21
6.971126674786844
 31
0.0
  0
ARC
  5
23C
330
1F
100
AcDbEntity
  8
0
  6
Continuous
 62
     7
370
     5
100
AcDbCircle
 10
4.670064132255978
 20
7.721126674786835
 30
0.0
 40
0.041666666666667
100
AcDbArc
 50
90.0
 51
114.410333082847
  0
LINE
  5
23D
330
1F
100
AcDbEntity
  8
0
  6
Continuous
 62
     7
370
     5
100
AcDbLine
 10
3.545064132255978
 20
7.036198135076111
 30
0.0
 11
3.545064132255978
 21
7.551888547830899
 31
0.0
  0
LINE
  5
23E
330
1F
100
AcDbEntity
  8
0
  6
Continuous
 62
     7
370
     5
100
AcDbLine
 10
4.271659338633371
 20
5.929460008120168
 30
0.0
 11
3.755968925878584
 21
5.929460008120168
 31
0.0
  0
LINE
  5
23F
330
1F
100
AcDbEntity
  8
0
  6
Continuous
 62
     7
370
     5
100
AcDbLine
 10
5.378397465589311
 20
6.656055214497553
 30
0.0
 11
5.378397465589311
 21
6.140364801742763
 31
0.0
  0
LINE
  5
240
330
1F
100
AcDbEntity
  8
0
  6
Continuous
 62
     7
370
     5
100
AcDbLine
 10
3.545064132255978
 20
6.140364801742778
 30
0.0
 11
3.545064132255978
 21
6.656055214497564
 31
0.0
  0
LINE
  5
241
330
1F
100
AcDbEntity
  8
0
  6
Continuous
 62
     7
370
     5
100
AcDbLine
 10
5.167492671966704
 20
5.929460008120168
 30
0.0
 11
4.651802259211917
 21
5.929460008120168
 31
0.0
  0
LINE
  5
242
330
1F
100
AcDbEntity
  8
0
  6
Continuous
 62
     7
370
     5
100
AcDbLine
 10
4.670064132255978
 20
7.762793341453502
 30
0.0
 11
5.167492671966712
 21
7.762793341453502
 31
0.0
  0
LINE
  5
243
330
1F
100
AcDbEntity
  8
0
  6
Continuous
 62
     7
370
     5
100
AcDbLine
 10
5.378397465589311
 20
7.551888547830884
 30
0.0
 11
5.378397465589311
 21
7.036198135076099
 31
0.0
  0
LINE
  5
244
330
1F
100
AcDbEntity
  8
0
  6
Continuous
 62
     7
370
     5
100
AcDbLine
 10
3.755968925878591
 20
7.762793341453502
 30
0.0
 11
4.253397465589311
 21
7.762793341453502
 31
0.0
  0
SPLINE
  5
245
330
1F
100
AcDbEntity
  8
0
  6
Continuous
 62
     7
370
     5
100
AcDbSpline
210
0.0
220
0.0
230
1.0
 70
     8
 71
     3
 72
    18
 73
    14
 74
     0
 42
0.0000000001
 43
0.0000000001
 40
0.0
 40
0.0
 40
0.0
 40
0.0
 40
0.0743636501927226
 40
0.1736927484324532
 40
0.2693771487302543
 40
0.3651609404794936
 40
0.4609790752903866
 40
0.5567648202355358
 40
0.6524508604019469
 40
0.7516271071712398
 40
0.850911048595989
 40
0.9502319425488654
 40
1.0
 40
1.0
 40
1.0
 40
1.0
 10
5.024230798922644
 20
6.559630957272745
 30
0.0
 10
5.026965069085441
 20
6.565127507663068
 30
0.0
 10
5.033351561656774
 20
6.577965916505538
 30
0.0
 10
5.042252639605373
 20
6.598353368167409
 30
0.0
 10
5.051112299274069
 20
6.620666634836749
 30
0.0
 10
5.059007395872668
 20
6.643034863558058
 30
0.0
 10
5.066075607804129
 20
6.665685530627603
 30
0.0
 10
5.072296718433028
 20
6.688575534133021
 30
0.0
 10
5.077724899409099
 20
6.711950495518496
 30
0.0
 10
5.082330485957958
 20
6.735797672937271
 30
0.0
 10
5.086019211928376
 20
6.760103067623322
 30
0.0
 10
5.088475963018969
 20
6.780467465413373
 30
0.0
 10
5.089347064711011
 20
6.79274424585594
 30
0.0
 10
5.089637851108308
 20
6.796842413484238
 30
0.0
  0
SPLINE
  5
246
330
1F
100
AcDbEntity
  8
0
  6
Continuous
 62
     7
370
     5
100
AcDbSpline
210
0.0
220
0.0
230
1.0
 70
     8
 71
     3
 72
    17
 73
    13
 74
     0
 42
0.0000000001
 43
0.0000000001
 40
0.0
 40
0.0
 40
0.0
 40
0.0
 40
0.0731014241280884
 40
0.180695034943139
 40
0.2913750304598186
 40
0.4021563322091341
 40
0.5129363400814251
 40
0.6236145696016197
 40
0.7316793102126496
 40
0.8398407592644783
 40
0.9480013570160924
 40
1.0
 40
1.0
 40
1.0
 40
1.0
 10
5.089636135430562
 20
6.895409722390867
 30
0.0
 10
5.089176088548194
 20
6.901424761388709
 30
0.0
 10
5.08803892619498
 20
6.91629297626774
 30
0.0
 10
5.084939770804129
 20
6.940147344550588
 30
0.0
 10
5.080465367667568
 20
6.96693344033725
 30
0.0
 10
5.074756127929383
 20
6.993756788111696
 30
0.0
 10
5.067921114930207
 20
7.02031409675302
 30
0.0
 10
5.060011412461133
 20
7.046337090024275
 30
0.0
 10
5.051080966878884
 20
7.071800523005326
 30
0.0
 10
5.041107020112117
 20
7.096643694889261
 30
0.0
 10
5.032168129800762
 20
7.116914075401935
 30
0.0
 10
5.02617619179394
 20
7.128694478174357
 30
0.0
 10
5.024230798922649
 20
7.132519202587113
 30
0.0
  0
SPLINE
  5
247
330
1F
100
AcDbEntity
  8
0
  6
Continuous
 62
     7
370
     5
100
AcDbSpline
210
0.0
220
0.0
230
1.0
 70
     8
 71
     3
 72
    21
 73
    17
 74
     0
 42
0.0000000001
 43
0.0000000001
 40
0.0
 40
0.0
 40
0.0
 40
0.0
 40
0.0077654807605898
 40
0.0909816985288014
 40
0.1741757796450228
 40
0.2535838825960844
 40
0.3330111850171817
 40
0.4124194791605558
 40
0.4925216910867322
 40
0.5726433488329784
 40
0.6527457919927669
 40
0.7350380153380549
 40
0.8173509977902293
 40
0.8996434471379945
 40
0.9826869847924715
 40
1.0
 40
1.0
 40
1.0
 40
1.0
 10
4.748378293911522
 20
7.408626674786836
 30
0.0
 10
4.747809106578804
 20
7.40892209430352
 30
0.0
 10
4.741140410601269
 20
7.412383279803195
 30
0.0
 10
4.728087777365581
 20
7.418443498085044
 30
0.0
 10
4.709510133129232
 20
7.426626873462559
 30
0.0
 10
4.690941627730222
 20
7.434034150282158
 30
0.0
 10
4.672453935921599
 20
7.440771251676237
 30
0.0
 10
4.653710120435808
 20
7.446946664759383
 30
0.0
 10
4.634728844378496
 20
7.452553705707074
 30
0.0
 10
4.615526955619624
 20
7.457582333608229
 30
0.0
 10
4.596002280652139
 20
7.462055063014786
 30
0.0
 10
4.576168682318352
 20
7.465943169877083
 30
0.0
 10
4.556044393860378
 20
7.469245269793598
 30
0.0
 10
4.53576073467363
 20
7.471862289515591
 30
0.0
 10
4.520756944685613
 20
7.473470420704806
 30
0.0
 10
4.512486479523855
 20
7.474004664263367
 30
0.0
 10
4.511059699856406
 20
7.474096829314777
 30
0.0
  0
SPLINE
  5
248
330
1F
100
AcDbEntity
  8
0
  6
Continuous
 62
     7
370
     5
100
AcDbSpline
210
0.0
220
0.0
230
1.0
 70
     8
 71
     3
 72
    17
 73
    13
 74
     0
 42
0.0000000001
 43
0.0000000001
 40
0.0
 40
0.0
 40
0.0
 40
0.0
 40
0.0738061631243699
 40
0.1830184956365724
 40
0.2922298210965168
 40
0.4013449033533457
 40
0.5124803985030969
 40
0.6236156517650258
 40
0.7313407614594978
 40
0.8390656916214361
 40
0.9475654549318315
 40
0.9999999999999998
 40
0.9999999999999998
 40
0.9999999999999998
 40
0.9999999999999998
 10
4.41244889282346
 20
7.474030397669642
 30
0.0
 10
4.406375820709586
 20
7.473565772184224
 30
0.0
 10
4.391316312463632
 20
7.472413631851005
 30
0.0
 10
4.367394263102782
 20
7.469283743040239
 30
0.0
 10
4.340733536794487
 20
7.464819800996975
 30
0.0
 10
4.314133533094867
 20
7.459163243076611
 30
0.0
 10
4.287643416534749
 20
7.452348650337219
 30
0.0
 10
4.261583120837452
 20
7.444426940939256
 30
0.0
 10
4.236142897889223
 20
7.435509844326271
 30
0.0
 10
4.211329539299246
 20
7.425558030597809
 30
0.0
 10
4.191032443277391
 20
7.416609853896601
 30
0.0
 10
4.179195148888061
 20
7.410588509225446
 30
0.0
 10
4.175338400427178
 20
7.408626674786838
 30
0.0
  0
SPLINE
  5
249
330
1F
100
AcDbEntity
  8
0
  6
Continuous
 62
     7
370
     5
100
AcDbSpline
210
0.0
220
0.0
230
1.0
 70
     8
 71
     3
 72
    18
 73
    14
 74
     0
 42
0.0000000001
 43
0.0000000001
 40
0.0
 40
0.0
 40
0.0
 40
0.0
 40
0.0743636501930633
 40
0.1736927484327931
 40
0.2693771487305934
 40
0.3651609404798318
 40
0.4609790752907242
 40
0.5567648202358725
 40
0.6524508604022829
 40
0.7516271071715747
 40
0.850911048596323
 40
0.9502319425491981
 40
1.0
 40
1.0
 40
1.0
 40
1.0
 10
3.899230798922642
 20
7.132622392300922
 30
0.0
 10
3.896496528759834
 20
7.127125841910575
 30
0.0
 10
3.890110036188489
 20
7.114287433068079
 30
0.0
 10
3.881208958239882
 20
7.09389998140618
 30
0.0
 10
3.872349298571189
 20
7.07158671473684
 30
0.0
 10
3.864454201972593
 20
7.04921848601553
 30
0.0
 10
3.857385990041136
 20
7.026567818945983
 30
0.0
 10
3.851164879412241
 20
7.003677815440564
 30
0.0
 10
3.845736698436171
 20
6.98030285405509
 30
0.0
 10
3.841131111887317
 20
6.956455676636313
 30
0.0
 10
3.837442385916902
 20
6.932150281950262
 30
0.0
 10
3.834985634826314
 20
6.911785884160239
 30
0.0
 10
3.834114533134275
 20
6.899509103717697
 30
0.0
 10
3.833823746736981
 20
6.895410936089428
 30
0.0
  0
SPLINE
  5
24A
330
1F
100
AcDbEntity
  8
0
  6
Continuous
 62
     7
370
     5
100
AcDbSpline
210
0.0
220
0.0
230
1.0
 70
     8
 71
     3
 72
    17
 73
    13
 74
     0
 42
0.0000000001
 43
0.0000000001
 40
0.0
 40
0.0
 40
0.0
 40
0.0
 40
0.0731014241284221
 40
0.1806950349434739
 40
0.2913750304601544
 40
0.4021563322094713
 40
0.5129363400817634
 40
0.6236145696019592
 40
0.7316793102129885
 40
0.8398407592648167
 40
0.9480013570164301
 40
1.0
 40
1.0
 40
1.0
 40
1.0
 10
3.833825462414726
 20
6.796843627182798
 30
0.0
 10
3.834285509297096
 20
6.790828588184928
 30
0.0
 10
3.835422671650315
 20
6.77596037330587
 30
0.0
 10
3.838521827041172
 20
6.752106005022995
 30
0.0
 10
3.842996230177736
 20
6.725319909236333
 30
0.0
 10
3.848705469915926
 20
6.698496561461888
 30
0.0
 10
3.855540482915105
 20
6.671939252820564
 30
0.0
 10
3.863450185384182
 20
6.64591625954931
 30
0.0
 10
3.872380630966436
 20
6.620452826568261
 30
0.0
 10
3.882354577733207
 20
6.595609654684328
 30
0.0
 10
3.891293468044553
 20
6.575339274171679
 30
0.0
 10
3.897285406051362
 20
6.563558871399284
 30
0.0
 10
3.899230798922642
 20
6.559734146986552
 30
0.0
  0
SPLINE
  5
24B
330
1F
100
AcDbEntity
  8
0
  6
Continuous
 62
     7
370
     5
100
AcDbSpline
210
0.0
220
0.0
230
1.0
 70
     8
 71
     3
 72
    21
 73
    17
 74
     0
 42
0.0000000001
 43
0.0000000001
 40
0.0
 40
0.0
 40
0.0
 40
0.0
 40
0.0077654807605793
 40
0.0909816985287905
 40
0.1741757796450118
 40
0.2535838825960734
 40
0.3330111850171708
 40
0.412419479160545
 40
0.4925216910867216
 40
0.5726433488329679
 40
0.6527457919927563
 40
0.7350380153380446
 40
0.8173509977902188
 40
0.899643447137984
 40
0.982686984792461
 40
1.0
 40
1.0
 40
1.0
 40
1.0
 10
4.175083303933763
 20
6.283626674786836
 30
0.0
 10
4.17565249126648
 20
6.283331255270151
 30
0.0
 10
4.182321187244015
 20
6.279870069770479
 30
0.0
 10
4.195373820479701
 20
6.273809851488629
 30
0.0
 10
4.213951464716051
 20
6.265626476111114
 30
0.0
 10
4.23251997011506
 20
6.258219199291514
 30
0.0
 10
4.251007661923683
 20
6.251482097897436
 30
0.0
 10
4.269751477409474
 20
6.245306684814289
 30
0.0
 10
4.288732753466785
 20
6.239699643866598
 30
0.0
 10
4.307934642225658
 20
6.234671015965441
 30
0.0
 10
4.327459317193143
 20
6.230198286558884
 30
0.0
 10
4.347292915526931
 20
6.226310179696588
 30
0.0
 10
4.367417203984904
 20
6.223008079780073
 30
0.0
 10
4.387700863171652
 20
6.220391060058081
 30
0.0
 10
4.40270465315967
 20
6.218782928868864
 30
0.0
 10
4.410975118321428
 20
6.218248685310303
 30
0.0
 10
4.412401897988879
 20
6.218156520258894
 30
0.0
  0
SPLINE
  5
24C
330
1F
100
AcDbEntity
  8
0
  6
Continuous
 62
     7
370
     5
100
AcDbSpline
210
0.0
220
0.0
230
1.0
 70
     8
 71
     3
 72
    17
 73
    13
 74
     0
 42
0.0000000001
 43
0.0000000001
 40
0.0
 40
0.0
 40
0.0
 40
0.0
 40
0.0738061631243604
 40
0.1830184956365628
 40
0.2922298210965074
 40
0.4013449033533365
 40
0.5124803985030882
 40
0.6236156517650173
 40
0.7313407614594903
 40
0.839065691621429
 40
0.947565454931825
 40
1.0
 40
1.0
 40
1.0
 40
1.0
 10
4.511012705021824
 20
6.218222951904027
 30
0.0
 10
4.517085777135697
 20
6.218687577389445
 30
0.0
 10
4.53214528538165
 20
6.219839717722663
 30
0.0
 10
4.5560673347425
 20
6.22296960653343
 30
0.0
 10
4.582728061050794
 20
6.227433548576693
 30
0.0
 10
4.609328064750414
 20
6.233090106497057
 30
0.0
 10
4.635818181310533
 20
6.239904699236449
 30
0.0
 10
4.66187847700783
 20
6.247826408634413
 30
0.0
 10
4.687318699956059
 20
6.256743505247397
 30
0.0
 10
4.712132058546036
 20
6.266695318975859
 30
0.0
 10
4.732429154567891
 20
6.275643495677067
 30
0.0
 10
4.744266448957221
 20
6.281664840348222
 30
0.0
 10
4.748123197418106
 20
6.283626674786829
 30
0.0
  0
ARC
  5
24D
330
1F
100
AcDbEntity
  8
0
  6
Continuous
 62
     7
370
     5
100
AcDbCircle
 10
4.454518185997331
 20
6.841962470772845
 30
0.0
 40
0.5541666666666667
100
AcDbArc
 50
304.0955332226075
 51
306.2530431950059
  0
SPLINE
  5
24E
330
1F
100
AcDbEntity
  8
0
  6
Continuous
 62
     7
370
     5
100
AcDbSpline
210
0.0
220
0.0
230
1.0
 70
     8
 71
     3
 72
    14
 73
    10
 74
     0
 42
0.0000000001
 43
0.0000000001
 40
0.0
 40
0.0
 40
0.0
 40
0.0
 40
0.25
 40
0.25
 40
0.5
 40
0.5
 40
0.75
 40
0.75
 40
1.0
 40
1.0
 40
1.0
 40
1.0
 10
4.782226019132179
 20
6.39507515774359
 30
0.0
 10
4.782815033190121
 20
6.394054955468863
 30
0.0
 10
4.783610847349278
 20
6.393176549354833
 30
0.0
 10
4.785499118754613
 20
6.3918095835777
 30
0.0
 10
4.786593778833297
 20
6.391326133782142
 30
0.0
 10
4.788866947688954
 20
6.390849292424542
 30
0.0
 10
4.790063966800311
 20
6.390852189102001
 30
0.0
 10
4.792341416743286
 20
6.391344146920981
 30
0.0
 10
4.793424734376106
 20
6.391828566837571
 30
0.0
 10
4.794374683125297
 20
6.392525201792564
 30
0.0
  0
SPLINE
  5
24F
330
1F
100
AcDbEntity
  8
0
  6
Continuous
 62
     7
370
     5
100
AcDbSpline
210
0.0
220
0.0
230
1.0
 70
     8
 71
     3
 72
    12
 73
     8
 74
     0
 42
0.0000000001
 43
0.0000000001
 40
0.0
 40
0.0
 40
0.0
 40
0.0
 40
0.2499999999999964
 40
0.2499999999999964
 40
0.4999999999999929
 40
0.4999999999999929
 40
1.0
 40
1.0
 40
1.0
 40
1.0
 10
4.777062223508427
 20
6.38032377369164
 30
0.0
 10
4.776108897784267
 20
6.37967840725449
 30
0.0
 10
4.77503861944182
 20
6.379240986435231
 30
0.0
 10
4.772797214942606
 20
6.378822153133974
 30
0.0
 10
4.77162982105729
 20
6.378846776090891
 30
0.0
 10
4.768310358719197
 20
6.379607674086882
 30
0.0
 10
4.766321101685346
 20
6.381060794909052
 30
0.0
 10
4.765169853333697
 20
6.38305481554624
 30
0.0
  0
LINE
  5
250
330
1F
100
AcDbEntity
  8
0
  6
Continuous
 62
     7
370
     5
100
AcDbLine
 10
4.712287621521087
 20
7.325927298607483
 30
0.0
 11
4.694290536319681
 21
7.336317920593142
 31
0.0
  0
ELLIPSE
  5
251
330
1F
100
AcDbEntity
  8
0
  6
Continuous
 62
     7
370
     5
100
AcDbEllipse
 10
4.698457202986348
 20
7.343534798958012
 30
0.0
 11
-0.0072211463269483
 21
0.0041691307757228
 31
0.0
210
0.0
220
0.0
230
0.9999999999999998
 40
0.9994089633579246
 41
0.2076317640446432
 42
1.570796326795077
  0
ELLIPSE
  5
252
330
1F
100
AcDbEntity
  8
0
  6
Continuous
 62
     7
370
     5
100
AcDbEllipse
 10
4.716454288187754
 20
7.333144176972353
 30
0.0
 11
-0.0072211463269491
 21
0.004169130775721
 31
0.0
210
0.0
220
0.0
230
1.0
 40
0.9994089633577011
 41
0.0
 42
1.57079632679484
  0
SPLINE
  5
253
330
1F
100
AcDbEntity
  8
0
  6
Continuous
 62
     7
370
     5
100
AcDbSpline
210
0.0
220
0.0
230
1.0
 70
     8
 71
     3
 72
    10
 73
     6
 74
     0
 42
0.0000000001
 43
0.0000000001
 40
0.0
 40
0.0
 40
0.0
 40
0.0
 40
0.1112287736837946
 40
0.5872809546243482
 40
1.0
 40
1.0
 40
1.0
 40
1.0
 10
4.711934413353974
 20
7.346126674786836
 30
0.0
 10
4.711999464980223
 20
7.345918152745026
 30
0.0
 10
4.712342933490196
 20
7.344817169431816
 30
0.0
 10
4.712096558250992
 20
7.342764443813237
 30
0.0
 10
4.711377278035093
 20
7.3411829383459
 30
0.0
 10
4.711043265597163
 20
7.340448534027433
 30
0.0
  0
LINE
  5
254
330
1F
100
AcDbEntity
  8
0
  6
Continuous
 62
     7
370
     5
100
AcDbLine
 10
4.751971916603723
 20
6.389237789414747
 30
0.0
 11
4.769969001805129
 21
6.399628411400407
 31
0.0
  0
ELLIPSE
  5
255
330
1F
100
AcDbEntity
  8
0
  6
Continuous
 62
     7
370
     5
100
AcDbEllipse
 10
4.774135668471795
 20
6.392411533035537
 30
0.0
 11
0.0072211463269491
 21
0.0041691307757219
 31
0.0
210
0.0
220
0.0
230
0.9999999999999996
 40
0.9994089633577011
 41
0.0
 42
1.57079632679486
  0
LINE
  5
256
330
1F
100
AcDbEntity
  8
0
  6
Continuous
 62
     7
370
     5
100
AcDbLine
 10
4.781356814798744
 20
6.396580663811259
 30
0.0
 11
4.763359729597339
 21
6.386190041825599
 31
0.0
  0
ELLIPSE
  5
257
330
1F
100
AcDbEntity
  8
0
  6
Continuous
 62
     7
370
     5
100
AcDbEllipse
 10
4.75613858327039
 20
6.382020911049877
 30
0.0
 11
0.0072211463269491
 21
0.0041691307757219
 31
0.0
210
0.0
220
0.0
230
0.9999999999999996
 40
0.9994089633576479
 41
0.0
 42
1.57079632679486
  0
LINE
  5
258
330
1F
100
AcDbEntity
  8
0
  6
Continuous
 62
     7
370
     5
100
AcDbLine
 10
4.763359729597339
 20
6.386190041825599
 30
0.0
 11
4.765169853333697
 21
6.38305481554624
 31
0.0
  0
LINE
  5
259
330
1F
100
AcDbEntity
  8
0
  6
Continuous
 62
     7
370
     5
100
AcDbLine
 10
4.781356814798744
 20
6.396580663811259
 30
0.0
 11
4.782226019132179
 21
6.39507515774359
 31
0.0
  0
ARC
  5
25A
330
1F
100
AcDbEntity
  8
0
  6
Continuous
 62
     7
370
     5
100
AcDbCircle
 10
4.461730798922644
 20
6.846126674786836
 30
0.0
 40
0.5625000000000008
100
AcDbArc
 50
304.096554595949
 51
310.7332274127462
  0
ARC
  5
25B
330
1F
100
AcDbEntity
  8
0
  6
Continuous
 62
     7
370
     5
100
AcDbCircle
 10
4.461730798922644
 20
6.846126674786836
 30
0.0
 40
0.5625000000000013
100
AcDbArc
 50
319.2667725872543
 51
332.7339555492681
  0
ARC
  5
25C
330
1F
100
AcDbEntity
  8
0
  6
Continuous
 62
     7
370
     5
100
AcDbCircle
 10
4.461730798922644
 20
6.846126674786836
 30
0.0
 40
0.5624999999999996
100
AcDbArc
 50
27.2660444507319
 51
40.73322741274532
  0
ARC
  5
25D
330
1F
100
AcDbEntity
  8
0
  6
Continuous
 62
     7
370
     5
100
AcDbCircle
 10
4.461730798922644
 20
6.846126674786836
 30
0.0
 40
0.5624999999999996
100
AcDbArc
 50
49.26677258725383
 51
55.90344540405254
  0
SPLINE
  5
25E
330
1F
100
AcDbEntity
  8
0
  6
Continuous
 62
     7
370
     5
100
AcDbSpline
210
0.0
220
0.0
230
1.0
 70
     8
 71
     3
 72
    12
 73
     8
 74
     0
 42
0.0000000001
 43
0.0000000001
 40
0.0
 40
0.0
 40
0.0
 40
0.0
 40
0.2500000000000011
 40
0.2500000000000011
 40
0.5000000000000023
 40
0.5000000000000023
 40
1.0
 40
1.0
 40
1.0
 40
1.0
 10
4.765169853333691
 20
7.309198534027434
 30
0.0
 10
4.76574547493097
 20
7.310195539879857
 30
0.0
 10
4.766517570992069
 20
7.311056367069105
 30
0.0
 10
4.768351643636845
 20
7.312410996969825
 30
0.0
 10
4.769413052617583
 20
7.312897876162764
 30
0.0
 10
4.772732146510288
 20
7.313660373981564
 30
0.0
 10
4.775155580223281
 20
7.313220303230161
 30
0.0
 10
4.777062223508421
 20
7.311929575882035
 30
0.0
  0
LINE
  5
25F
330
1F
100
AcDbEntity
  8
0
  6
Continuous
 62
     7
370
     5
100
AcDbLine
 10
4.765169853333691
 20
7.309198534027434
 30
0.0
 11
4.763359729597333
 21
7.306063307748075
 31
0.0
  0
ELLIPSE
  5
260
330
1F
100
AcDbEntity
  8
0
  6
Continuous
 62
     7
370
     5
100
AcDbEllipse
 10
4.756138583270383
 20
7.310232438523797
 30
0.0
 11
0.00722114632695
 21
-0.0041691307757219
 31
0.0
210
0.0
220
0.0
230
1.0
 40
0.9994089633576093
 41
4.712388980384686
 42
6.283185307179586
  0
LINE
  5
261
330
1F
100
AcDbEntity
  8
0
  6
Continuous
 62
     7
370
     5
100
AcDbLine
 10
4.751971916603716
 20
7.303015560158927
 30
0.0
 11
4.712287621521087
 21
7.325927298607483
 31
0.0
  0
LINE
  5
262
330
1F
100
AcDbEntity
  8
0
  6
Continuous
 62
     7
370
     5
100
AcDbLine
 10
4.709233141860805
 20
7.337313307748074
 30
0.0
 11
4.711043265597163
 21
7.340448534027433
 31
0.0
  0
ARC
  5
263
330
1F
100
AcDbEntity
  8
0
  6
Continuous
 62
     7
370
     5
100
AcDbCircle
 10
4.461730798922644
 20
6.846126674786836
 30
0.0
 40
0.5624999999999999
100
AcDbArc
 50
117.2660444507322
 51
130.7332274127457
  0
ARC
  5
264
330
1F
100
AcDbEntity
  8
0
  6
Continuous
 62
     7
370
     5
100
AcDbCircle
 10
4.461730798922644
 20
6.846126674786836
 30
0.0
 40
0.5624999999999993
100
AcDbArc
 50
139.2667725872543
 51
152.7339555492677
  0
ARC
  5
265
330
1F
100
AcDbEntity
  8
0
  6
Continuous
 62
     7
370
     5
100
AcDbCircle
 10
4.461730798922644
 20
6.846126674786836
 30
0.0
 40
0.5625000000000005
100
AcDbArc
 50
207.2660444507333
 51
220.7332274127467
  0
ARC
  5
266
330
1F
100
AcDbEntity
  8
0
  6
Continuous
 62
     7
370
     5
100
AcDbCircle
 10
4.461730798922644
 20
6.846126674786836
 30
0.0
 40
0.5625000000000002
100
AcDbArc
 50
229.2667725872543
 51
242.733955549268
  0
SPLINE
  5
267
330
1F
100
AcDbEntity
  8
0
  6
Continuous
 62
     7
370
     5
100
AcDbSpline
210
0.0
220
0.0
230
1.0
 70
     8
 71
     3
 72
    10
 73
     6
 74
     0
 42
0.0000000001
 43
0.0000000001
 40
0.0
 40
0.0
 40
0.0
 40
0.0
 40
0.4767087746873254
 40
0.9534141699614513
 40
1.0
 40
1.0
 40
1.0
 40
1.0
 10
4.71104326559717
 20
6.351804815546239
 30
0.0
 10
4.711414242554553
 20
6.350953075711509
 30
0.0
 10
4.712156193839446
 20
6.349249602080076
 30
0.0
 10
4.712342491224124
 20
6.347180946164648
 30
0.0
 10
4.712008070925258
 20
6.346212858476383
 30
0.0
 10
4.711978299267621
 20
6.34612667478683
 30
0.0
  0
LINE
  5
268
330
1F
100
AcDbEntity
  8
0
  6
Continuous
 62
     7
370
     5
100
AcDbLine
 10
4.71104326559717
 20
6.351804815546239
 30
0.0
 11
4.709233141860812
 21
6.354940041825598
 31
0.0
  0
ELLIPSE
  5
269
330
1F
100
AcDbEntity
  8
0
  6
Continuous
 62
     7
370
     5
100
AcDbEllipse
 10
4.716454288187761
 20
6.35910917260132
 30
0.0
 11
-0.0072211463269491
 21
-0.0041691307757228
 31
0.0
210
0.0
220
0.0
230
1.0
 40
0.9994089633575947
 41
4.712388980384668
 42
6.283185307179586
  0
LINE
  5
26A
330
1F
100
AcDbEntity
  8
0
  6
Continuous
 62
     7
370
     5
100
AcDbLine
 10
4.712287621521094
 20
6.366326050966191
 30
0.0
 11
4.751971916603723
 21
6.389237789414747
 31
0.0
  0
LINE
  5
26B
330
1F
100
AcDbEntity
  8
0
  6
Continuous
 62
     7
370
     5
100
AcDbLine
 10
4.763359729597333
 20
7.306063307748075
 30
0.0
 11
4.781356814798738
 21
7.295672685762416
 31
0.0
  0
ARC
  5
26C
330
1F
100
AcDbEntity
  8
0
  6
Continuous
 62
     7
370
     5
100
AcDbCircle
 10
4.454518185997331
 20
6.850290878800825
 30
0.0
 40
0.5541666666666666
100
AcDbArc
 50
53.74695680499578
 51
55.90446677739408
  0
LINE
  5
26D
330
1F
100
AcDbEntity
  8
0
  6
Continuous
 62
     7
370
     5
100
AcDbLine
 10
4.782226019132172
 20
7.297178191830083
 30
0.0
 11
4.781356814798738
 21
7.295672685762416
 31
0.0
  0
ELLIPSE
  5
26E
330
1F
100
AcDbEntity
  8
0
  6
Continuous
 62
     7
370
     5
100
AcDbEllipse
 10
4.698457202986355
 20
6.34871855061566
 30
0.0
 11
-0.0072211463269491
 21
-0.0041691307757219
 31
0.0
210
0.0
220
0.0
230
0.9999999999999996
 40
0.9994089633576479
 41
4.712388980384668
 42
6.075553543135855
  0
LINE
  5
26F
330
1F
100
AcDbEntity
  8
0
  6
Continuous
 62
     7
370
     5
100
AcDbLine
 10
4.694290536319688
 20
6.35593542898053
 30
0.0
 11
4.712287621521094
 21
6.366326050966191
 31
0.0
  0
SPLINE
  5
270
330
1F
100
AcDbEntity
  8
0
  6
Continuous
 62
     7
370
     5
100
AcDbSpline
210
0.0
220
0.0
230
1.0
 70
     8
 71
     3
 72
    14
 73
    10
 74
     0
 42
0.0000000001
 43
0.0000000001
 40
0.0
 40
0.0
 40
0.0
 40
0.0
 40
0.25
 40
0.25
 40
0.5
 40
0.5
 40
0.75
 40
0.75
 40
1.0
 40
1.0
 40
1.0
 40
1.0
 10
4.79437468312529
 20
7.299728147781111
 30
0.0
 10
4.793424733730676
 20
7.300424783209418
 30
0.0
 10
4.792342905036826
 20
7.300908747845054
 30
0.0
 10
4.790064300674771
 20
7.301401221561548
 30
0.0
 10
4.788867718602435
 20
7.301404105479927
 30
0.0
 10
4.786594566389938
 20
7.300927494302435
 30
0.0
 10
4.785499467490819
 20
7.300443836823763
 30
0.0
 10
4.783612202365462
 20
7.299077962615116
 30
0.0
 10
4.782815033632162
 20
7.298198394870459
 30
0.0
 10
4.782226019132172
 20
7.297178191830083
 30
0.0
  0
ELLIPSE
  5
271
330
1F
100
AcDbEntity
  8
0
  6
Continuous
 62
     7
370
     5
100
AcDbEllipse
 10
4.774135668471789
 20
7.299841816538137
 30
0.0
 11
0.0072211463269491
 21
-0.004169130775721
 31
0.0
210
0.0
220
0.0
230
1.0
 40
0.9994089633577011
 41
4.712388980384647
 42
6.283185307179586
  0
LINE
  5
272
330
1F
100
AcDbEntity
  8
0
  6
Continuous
 62
     7
370
     5
100
AcDbLine
 10
4.769969001805122
 20
7.292624938173267
 30
0.0
 11
4.751971916603716
 21
7.303015560158927
 31
0.0
  0
LINE
  5
273
330
1F
100
AcDbEntity
  8
0
  6
Continuous
 62
     7
370
     5
100
AcDbLine
 10
4.693967942363917
 20
7.346126674786836
 30
0.0
 11
4.709233141860805
 21
7.337313307748074
 31
0.0
  0
ARC
  5
274
330
1F
100
AcDbEntity
  8
0
  6
Continuous
 62
     7
370
     5
100
AcDbCircle
 10
4.468943411847957
 20
6.841962470772845
 30
0.0
 40
0.5541666666666662
100
AcDbArc
 50
64.09553322260691
 51
65.47358548626326
  0
ARC
  5
275
330
1F
100
AcDbEntity
  8
0
  6
Continuous
 62
     7
370
     5
100
AcDbCircle
 10
4.468943411847957
 20
6.850290878800825
 30
0.0
 40
0.5541666666666667
100
AcDbArc
 50
294.5264145137368
 51
295.9044667773946
  0
LINE
  5
276
330
1F
100
AcDbEntity
  8
0
  6
Continuous
 62
     7
370
     5
100
AcDbLine
 10
4.709233141860812
 20
6.354940041825598
 30
0.0
 11
4.693967942363912
 21
6.34612667478683
 31
0.0
  0
SPLINE
  5
2A1
330
1F
100
AcDbEntity
  8
0
  6
Continuous
 62
     7
370
     5
100
AcDbSpline
210
0.0
220
0.0
230
1.0
 70
     8
 71
     3
 72
    44
 73
    40
 74
     0
 42
0.0000000001
 43
0.0000000001
 40
0.0
 40
0.0
 40
0.0
 40
0.0
 40
0.0400148832199225
 40
0.0958760620547301
 40
0.1482553111815521
 40
0.1972054893803008
 40
0.242781205510629
 40
0.2843136275066879
 40
0.3227029205640149
 40
0.3580098780045897
 40
0.3903007224116267
 40
0.4171008337726282
 40
0.4415312023787499
 40
0.463663689894892
 40
0.4835831197163676
 40
0.5013932742441236
 40
0.5112858411550774
 40
0.5202369264283188
 40
0.5287668666911174
 40
0.5374633515364842
 40
0.5468728624486559
 40
0.5574198562861229
 40
0.5693956970439537
 40
0.5829881489754531
 40
0.6002703633335466
 40
0.6198170680897365
 40
0.6416727479961204
 40
0.6658503366074639
 40
0.6923411115942092
 40
0.7208361768980455
 40
0.7501705059300083
 40
0.7803512837963673
 40
0.8130346740761153
 40
0.8469722731367836
 40
0.8823279609181932
 40
0.9192620720056535
 40
0.957930994937945
 40
0.9984873783648149
 40
0.9999999999999998
 40
0.9999999999999998
 40
0.9999999999999998
 40
0.9999999999999998
 10
3.370733286663448
 20
3.381913742812723
 30
0.0
 10
3.371589837706668
 20
3.381761483106477
 30
0.0
 10
3.373642142608358
 20
3.381396667321203
 30
0.0
 10
3.377067516473255
 20
3.380788886147939
 30
0.0
 10
3.380913428679187
 20
3.380107927124932
 30
0.0
 10
3.384770108109566
 20
3.37942685062247
 30
0.0
 10
3.388609105197735
 20
3.378750806981919
 30
0.0
 10
3.392430686417275
 20
3.378079795695703
 30
0.0
 10
3.396230499512828
 20
3.377414492424237
 30
0.0
 10
3.400033115151707
 20
3.376750475205293
 30
0.0
 10
3.403736989146306
 20
3.376105226919121
 30
0.0
 10
3.407327350562025
 20
3.375481063622854
 30
0.0
 10
3.410786661565978
 20
3.374880571240193
 30
0.0
 10
3.41423356956099
 20
3.37428299297789
 30
0.0
 10
3.417703093641055
 20
3.373681856757059
 30
0.0
 10
3.420703682133483
 20
3.373162383940489
 30
0.0
 10
3.423420716533077
 20
3.372691384553669
 30
0.0
 10
3.425971539837129
 20
3.372247666585772
 30
0.0
 10
3.428773571680401
 20
3.371758941217076
 30
0.0
 10
3.431806966739537
 20
3.371228423572261
 30
0.0
 10
3.435035251222109
 20
3.37066238972245
 30
0.0
 10
3.43845735978342
 20
3.370060910961695
 30
0.0
 10
3.442084301931928
 20
3.369421849075688
 30
0.0
 10
3.446110308982216
 20
3.368710801674886
 30
0.0
 10
3.450542198705288
 20
3.367926055833257
 30
0.0
 10
3.455390317745175
 20
3.367065358297954
 30
0.0
 10
3.460525525275508
 20
3.366151332067299
 30
0.0
 10
3.465950392112107
 20
3.365183310580492
 30
0.0
 10
3.471649196192667
 20
3.364163994342423
 30
0.0
 10
3.477522325418672
 20
3.363111107005358
 30
0.0
 10
3.484304961918891
 20
3.361897627293829
 30
0.0
 10
3.491886883111461
 20
3.360542450043022
 30
0.0
 10
3.500344865274769
 20
3.359032038422983
 30
0.0
 10
3.509709891017132
 20
3.357360783706496
 30
0.0
 10
3.519877618453176
 20
3.35554733546845
 30
0.0
 10
3.530855707212792
 20
3.353590259803073
 30
0.0
 10
3.542689417923895
 20
3.351481588694681
 30
0.0
 10
3.551038799250723
 20
3.349994047036143
 30
0.0
 10
3.555488869441091
 20
3.349201626795646
 30
0.0
 10
3.555648874947237
 20
3.349173134750299
 30
0.0
  0
SPLINE
  5
2A2
330
1F
100
AcDbEntity
  8
0
  6
Continuous
 62
     7
370
     5
100
AcDbSpline
210
0.0
220
0.0
230
1.0
 70
     8
 71
     3
 72
    43
 73
    39
 74
     0
 42
0.0000000001
 43
0.0000000001
 40
0.0
 40
0.0
 40
0.0
 40
0.0
 40
0.0015120902542812
 40
0.0456593890615165
 40
0.0875766321293852
 40
0.1274626971024968
 40
0.1655218356459148
 40
0.2019640238645505
 40
0.2370027817359957
 40
0.270854535890386
 40
0.3010054963388082
 40
0.3292742510380606
 40
0.3550083748892626
 40
0.3781943486770775
 40
0.3988435357972053
 40
0.4170043952727695
 40
0.4305970141973743
 40
0.4425730020870726
 40
0.4531201255019892
 40
0.4625297520168096
 40
0.4712263437047843
 40
0.47975638876407
 40
0.4887075840078695
 40
0.4986002724561646
 40
0.5164106457945536
 40
0.5363303203406353
 40
0.5584630797703982
 40
0.5828937485212722
 40
0.6096941891410302
 40
0.6426002295347598
 40
0.6786343761419671
 40
0.7178663368228487
 40
0.7603601332812256
 40
0.8061755862615855
 40
0.8544611015576485
 40
0.9060571666983255
 40
0.9610137128948608
 40
0.9999999999999998
 40
0.9999999999999998
 40
0.9999999999999998
 40
0.9999999999999998
 10
5.36781272289805
 20
3.349173134750299
 30
0.0
 10
5.367972727401675
 20
3.34920162662699
 30
0.0
 10
5.372804256380812
 20
3.350061973209652
 30
0.0
 10
5.381851459702572
 20
3.351673862187352
 30
0.0
 10
5.394642239439545
 20
3.353953185206893
 30
0.0
 10
5.406420466004434
 20
3.356053115301555
 30
0.0
 10
5.417237914668844
 20
3.357982787380166
 30
0.0
 10
5.427111278854185
 20
3.359745170826075
 30
0.0
 10
5.436042057712701
 20
3.361340740719245
 30
0.0
 10
5.443889306328118
 20
3.362744054590517
 30
0.0
 10
5.450446913614626
 20
3.363919252183559
 30
0.0
 10
5.456416908117444
 20
3.364987840534781
 30
0.0
 10
5.462159731316383
 20
3.36601297287793
 30
0.0
 10
5.467572000906298
 20
3.366976615568785
 30
0.0
 10
5.472671620370551
 20
3.367882158428169
 30
0.0
 10
5.477268791033139
 20
3.368696231006859
 30
0.0
 10
5.481377288951053
 20
3.369421847934642
 30
0.0
 10
5.485004239599498
 20
3.370060911213695
 30
0.0
 10
5.488426346279204
 20
3.370662389666077
 30
0.0
 10
5.491654631186118
 20
3.371228423585427
 30
0.0
 10
5.494688026144451
 20
3.371758941213741
 30
0.0
 10
5.497490058014265
 20
3.372247666586721
 30
0.0
 10
5.500040881308722
 20
3.372691384553309
 30
0.0
 10
5.5027579157227
 20
3.373162383941091
 30
0.0
 10
5.505758504128828
 20
3.373681856753604
 30
0.0
 10
5.5092280286101
 20
3.374282992992655
 30
0.0
 10
5.512674934859618
 20
3.374880571175905
 30
0.0
 10
5.51613425341704
 20
3.37548106390059
 30
0.0
 10
5.519751009234209
 20
3.376109820063732
 30
0.0
 10
5.523503947705876
 20
3.376763610477867
 30
0.0
 10
5.527375206209714
 20
3.377439670825535
 30
0.0
 10
5.531243576474393
 20
3.378117069672831
 30
0.0
 10
5.535107902833772
 20
3.378795711898923
 30
0.0
 10
5.538941579576924
 20
3.379470954407947
 30
0.0
 10
5.542749915042043
 20
3.380143621294471
 30
0.0
 10
5.546527357779939
 20
3.380812511732056
 30
0.0
 10
5.549884306732299
 20
3.381408195719174
 30
0.0
 10
5.551894687399847
 20
3.381765557812269
 30
0.0
 10
5.552728995618378
 20
3.381913863123833
 30
0.0
  0
SPLINE
  5
2A3
330
1F
100
AcDbEntity
  8
0
  6
Continuous
 62
     7
370
     5
100
AcDbSpline
210
0.0
220
0.0
230
1.0
 70
    24
 71
     1
 72
     4
 73
     2
 74
     0
 42
0.0000000001
 43
0.0000000001
 40
0.0
 40
0.0
 40
1.0
 40
1.0
 10
4.708117270422878
 20
3.363421500846402
 30
0.0
 10
4.690120182771215
 20
2.759254813981525
 30
0.0
  0
LINE
  5
2A4
330
1F
100
AcDbEntity
  8
0
  6
Continuous
 62
     7
370
     5
100
AcDbLine
 10
5.268459768409637
 20
3.356088168200576
 30
0.0
 11
5.268459768409637
 21
3.441432967845723
 31
0.0
  0
LINE
  5
2A5
330
1F
100
AcDbEntity
  8
0
  6
Continuous
 62
     7
370
     5
100
AcDbLine
 10
5.338053813342179
 20
3.460254832080608
 30
0.0
 11
5.252074455471948
 21
3.460254832080608
 31
0.0
  0
LINE
  5
2A6
330
1F
100
AcDbEntity
  8
0
  6
Continuous
 62
     7
370
     5
100
AcDbLine
 10
5.321668500404491
 20
3.441432967845723
 30
0.0
 11
5.321668500404491
 21
3.356088168200576
 31
0.0
  0
LINE
  5
2A7
330
1F
100
AcDbEntity
  8
0
  6
Continuous
 62
     7
370
     5
100
AcDbLine
 10
5.321668500404491
 20
3.356088168200576
 30
0.0
 11
5.268459768409637
 21
3.356088168200576
 31
0.0
  0
SPLINE
  5
2A8
330
1F
100
AcDbEntity
  8
0
  6
Continuous
 62
     7
370
     5
100
AcDbSpline
210
0.0
220
0.0
230
1.0
 70
    24
 71
     1
 72
     4
 73
     2
 74
     0
 42
0.0000000001
 43
0.0000000001
 40
0.0
 40
0.0
 40
1.0
 40
1.0
 10
5.321668500404491
 20
3.441432967845723
 30
0.0
 10
5.338053813342179
 20
3.460254832080608
 30
0.0
  0
SPLINE
  5
2A9
330
1F
100
AcDbEntity
  8
0
  6
Continuous
 62
     7
370
     5
100
AcDbSpline
210
0.0
220
0.0
230
1.0
 70
    24
 71
     1
 72
     4
 73
     2
 74
     0
 42
0.0000000001
 43
0.0000000001
 40
0.0
 40
0.0
 40
1.0
 40
1.0
 10
5.252074455471948
 20
3.460254832080608
 30
0.0
 10
5.268459768409637
 20
3.441432967845723
 30
0.0
  0
LINE
  5
2AA
330
1F
100
AcDbEntity
  8
0
  6
Continuous
 62
     7
370
     5
100
AcDbLine
 10
5.244033108366275
 20
3.481088169745447
 30
0.0
 11
5.244033108366275
 21
3.470671497857507
 31
0.0
  0
LINE
  5
2AB
330
1F
100
AcDbEntity
  8
0
  6
Continuous
 62
     7
370
     5
100
AcDbLine
 10
5.346095160447852
 20
3.481088169745447
 30
0.0
 11
5.244033108366275
 21
3.481088169745447
 31
0.0
  0
LINE
  5
2AC
330
1F
100
AcDbEntity
  8
0
  6
Continuous
 62
     7
370
     5
100
AcDbLine
 10
5.346095160447852
 20
3.470671497857507
 30
0.0
 11
5.346095160447852
 21
3.481088169745447
 31
0.0
  0
SPLINE
  5
2AD
330
1F
100
AcDbEntity
  8
0
  6
Continuous
 62
     7
370
     5
100
AcDbSpline
210
0.0
220
0.0
230
1.0
 70
    24
 71
     1
 72
     4
 73
     2
 74
     0
 42
0.0000000001
 43
0.0000000001
 40
0.0
 40
0.0
 40
1.0
 40
1.0
 10
5.336812441015951
 20
3.460254832080608
 30
0.0
 10
5.346095160447852
 20
3.470671497857507
 30
0.0
  0
SPLINE
  5
2AE
330
1F
100
AcDbEntity
  8
0
  6
Continuous
 62
     7
370
     5
100
AcDbSpline
210
0.0
220
0.0
230
1.0
 70
    24
 71
     1
 72
     4
 73
     2
 74
     0
 42
0.0000000001
 43
0.0000000001
 40
0.0
 40
0.0
 40
1.0
 40
1.0
 10
5.244033108366275
 20
3.470671497857507
 30
0.0
 10
5.253315778909851
 20
3.460254832080608
 30
0.0
  0
LINE
  5
2AF
330
1F
100
AcDbEntity
  8
0
  6
Continuous
 62
     7
370
     5
100
AcDbLine
 10
3.601793097440797
 20
3.356088168200576
 30
0.0
 11
3.601793097440797
 21
3.441432967845723
 31
0.0
  0
LINE
  5
2B0
330
1F
100
AcDbEntity
  8
0
  6
Continuous
 62
     7
370
     5
100
AcDbLine
 10
3.655001829435651
 20
3.441432967845723
 30
0.0
 11
3.655001829435651
 21
3.356088168200576
 31
0.0
  0
LINE
  5
2B1
330
1F
100
AcDbEntity
  8
0
  6
Continuous
 62
     7
370
     5
100
AcDbLine
 10
3.655001829435651
 20
3.356088168200576
 30
0.0
 11
3.601793097440797
 21
3.356088168200576
 31
0.0
  0
SPLINE
  5
2B2
330
1F
100
AcDbEntity
  8
0
  6
Continuous
 62
     7
370
     5
100
AcDbSpline
210
0.0
220
0.0
230
1.0
 70
    24
 71
     1
 72
     4
 73
     2
 74
     0
 42
0.0000000001
 43
0.0000000001
 40
0.0
 40
0.0
 40
1.0
 40
1.0
 10
3.655001829435651
 20
3.441432967845723
 30
0.0
 10
3.67138714237334
 20
3.460254832080608
 30
0.0
  0
SPLINE
  5
2B3
330
1F
100
AcDbEntity
  8
0
  6
Continuous
 62
     7
370
     5
100
AcDbSpline
210
0.0
220
0.0
230
1.0
 70
    24
 71
     1
 72
     4
 73
     2
 74
     0
 42
0.0000000001
 43
0.0000000001
 40
0.0
 40
0.0
 40
1.0
 40
1.0
 10
3.585407784503108
 20
3.460254832080608
 30
0.0
 10
3.601793097440797
 20
3.441432967845723
 30
0.0
  0
LINE
  5
2B4
330
1F
100
AcDbEntity
  8
0
  6
Continuous
 62
     7
370
     5
100
AcDbLine
 10
3.67138714237334
 20
3.460254832080608
 30
0.0
 11
3.585407784503108
 21
3.460254832080608
 31
0.0
  0
LINE
  5
2B5
330
1F
100
AcDbEntity
  8
0
  6
Continuous
 62
     7
370
     5
100
AcDbLine
 10
3.577366437397436
 20
3.481088169745447
 30
0.0
 11
3.577366437397436
 21
3.470671497857507
 31
0.0
  0
LINE
  5
2B6
330
1F
100
AcDbEntity
  8
0
  6
Continuous
 62
     7
370
     5
100
AcDbLine
 10
3.679428489479013
 20
3.481088169745447
 30
0.0
 11
3.577366437397436
 21
3.481088169745447
 31
0.0
  0
LINE
  5
2B7
330
1F
100
AcDbEntity
  8
0
  6
Continuous
 62
     7
370
     5
100
AcDbLine
 10
3.679428489479013
 20
3.470671497857507
 30
0.0
 11
3.679428489479013
 21
3.481088169745447
 31
0.0
  0
SPLINE
  5
2B8
330
1F
100
AcDbEntity
  8
0
  6
Continuous
 62
     7
370
     5
100
AcDbSpline
210
0.0
220
0.0
230
1.0
 70
    24
 71
     1
 72
     4
 73
     2
 74
     0
 42
0.0000000001
 43
0.0000000001
 40
0.0
 40
0.0
 40
1.0
 40
1.0
 10
3.670145818935437
 20
3.460254832080608
 30
0.0
 10
3.679428489479013
 20
3.470671497857507
 30
0.0
  0
SPLINE
  5
2B9
330
1F
100
AcDbEntity
  8
0
  6
Continuous
 62
     7
370
     5
100
AcDbSpline
210
0.0
220
0.0
230
1.0
 70
    24
 71
     1
 72
     4
 73
     2
 74
     0
 42
0.0000000001
 43
0.0000000001
 40
0.0
 40
0.0
 40
1.0
 40
1.0
 10
3.577366437397436
 20
3.470671497857507
 30
0.0
 10
3.586649156829336
 20
3.460254832080608
 30
0.0
  0
LINE
  5
2BA
330
1F
100
AcDbEntity
  8
0
  6
Continuous
 62
     7
370
     5
100
AcDbLine
 10
4.253397458940499
 20
3.550921498580429
 30
0.0
 11
3.524230793447151
 21
3.550921498580429
 31
0.0
  0
LINE
  5
2BB
330
1F
100
AcDbEntity
  8
0
  6
Continuous
 62
     7
370
     5
100
AcDbLine
 10
4.253397458940499
 20
3.550921498580429
 30
0.0
 11
4.253397458940499
 21
3.446754834700397
 31
0.0
  0
LINE
  5
2BC
330
1F
100
AcDbEntity
  8
0
  6
Continuous
 62
     7
370
     5
100
AcDbLine
 10
4.253397458940499
 20
3.446754834700397
 30
0.0
 11
3.783730800125375
 21
3.446754834700397
 31
0.0
  0
LINE
  5
2BD
330
1F
100
AcDbEntity
  8
0
  6
Continuous
 62
     7
370
     5
100
AcDbLine
 10
3.71173081409758
 20
3.488324057266968
 30
0.0
 11
3.783730800125375
 21
3.446754834700397
 31
0.0
  0
LINE
  5
2BE
330
1F
100
AcDbEntity
  8
0
  6
Continuous
 62
     7
370
     5
100
AcDbLine
 10
3.71173081409758
 20
3.488324057266968
 30
0.0
 11
3.71173081409758
 21
3.488421503919034
 31
0.0
  0
LINE
  5
2BF
330
1F
100
AcDbEntity
  8
0
  6
Continuous
 62
     7
370
     5
100
AcDbLine
 10
3.71173081409758
 20
3.488421503919034
 30
0.0
 11
3.524230793447151
 21
3.488421503919034
 31
0.0
  0
LINE
  5
2C0
330
1F
100
AcDbEntity
  8
0
  6
Continuous
 62
     7
370
     5
100
AcDbLine
 10
3.524230793447151
 20
3.488421503919034
 30
0.0
 11
3.524230793447151
 21
3.550921498580429
 31
0.0
  0
LINE
  5
2C1
330
1F
100
AcDbEntity
  8
0
  6
Continuous
 62
     7
370
     5
100
AcDbLine
 10
5.399230804398137
 20
3.488421503919034
 30
0.0
 11
5.211730783747709
 21
3.488421503919034
 31
0.0
  0
LINE
  5
2C2
330
1F
100
AcDbEntity
  8
0
  6
Continuous
 62
     7
370
     5
100
AcDbLine
 10
5.211730783747709
 20
3.488421503919034
 30
0.0
 11
5.211730783747709
 21
3.488324057266968
 31
0.0
  0
LINE
  5
2C3
330
1F
100
AcDbEntity
  8
0
  6
Continuous
 62
     7
370
     5
100
AcDbLine
 10
5.139730797719913
 20
3.446754834700397
 30
0.0
 11
4.670064138904789
 21
3.446754834700397
 31
0.0
  0
LINE
  5
2C4
330
1F
100
AcDbEntity
  8
0
  6
Continuous
 62
     7
370
     5
100
AcDbLine
 10
4.670064138904789
 20
3.446754834700397
 30
0.0
 11
4.670064138904789
 21
3.550921498580429
 31
0.0
  0
LINE
  5
2C5
330
1F
100
AcDbEntity
  8
0
  6
Continuous
 62
     7
370
     5
100
AcDbLine
 10
5.399230804398137
 20
3.550921498580429
 30
0.0
 11
5.399230804398137
 21
3.488421503919034
 31
0.0
  0
LINE
  5
2C6
330
1F
100
AcDbEntity
  8
0
  6
Continuous
 62
     7
370
     5
100
AcDbLine
 10
5.399230804398137
 20
3.550921498580429
 30
0.0
 11
4.670064138904789
 21
3.550921498580429
 31
0.0
  0
LINE
  5
2C7
330
1F
100
AcDbEntity
  8
0
  6
Continuous
 62
     7
370
     5
100
AcDbLine
 10
5.139730797719913
 20
3.446754834700397
 30
0.0
 11
5.211730783747709
 21
3.488324057266968
 31
0.0
  0
LINE
  5
2C8
330
1F
100
AcDbEntity
  8
0
  6
Continuous
 62
     7
370
     5
100
AcDbLine
 10
4.586730800467515
 20
3.550921498580429
 30
0.0
 11
4.586730800467515
 21
3.488421503919034
 31
0.0
  0
LINE
  5
2C9
330
1F
100
AcDbEntity
  8
0
  6
Continuous
 62
     7
370
     5
100
AcDbLine
 10
4.336730797377772
 20
3.488421503919034
 30
0.0
 11
4.336730797377772
 21
3.550921498580429
 31
0.0
  0
LINE
  5
2CA
330
1F
100
AcDbEntity
  8
0
  6
Continuous
 62
     7
370
     5
100
AcDbLine
 10
4.586730800467515
 20
3.550921498580429
 30
0.0
 11
4.336730797377772
 21
3.550921498580429
 31
0.0
  0
LINE
  5
2CB
330
1F
100
AcDbEntity
  8
0
  6
Continuous
 62
     7
370
     5
100
AcDbLine
 10
4.586730800467515
 20
3.488421503919034
 30
0.0
 11
4.336730797377772
 21
3.488421503919034
 31
0.0
  0
LINE
  5
2CC
330
1F
100
AcDbEntity
  8
0
  6
Continuous
 62
     7
370
     5
100
AcDbLine
 10
4.670064138904789
 20
3.550921498580429
 30
0.0
 11
4.586730800467515
 21
3.550921498580429
 31
0.0
  0
LINE
  5
2CD
330
1F
100
AcDbEntity
  8
0
  6
Continuous
 62
     7
370
     5
100
AcDbLine
 10
4.586730800467515
 20
3.488421503919034
 30
0.0
 11
4.670064138904789
 21
3.488421503919034
 31
0.0
  0
LINE
  5
2CE
330
1F
100
AcDbEntity
  8
0
  6
Continuous
 62
     7
370
     5
100
AcDbLine
 10
4.336730797377772
 20
3.550921498580429
 30
0.0
 11
4.253397458940499
 21
3.550921498580429
 31
0.0
  0
LINE
  5
2CF
330
1F
100
AcDbEntity
  8
0
  6
Continuous
 62
     7
370
     5
100
AcDbLine
 10
4.253397458940499
 20
3.488421503919034
 30
0.0
 11
4.336730797377772
 21
3.488421503919034
 31
0.0
  0
LINE
  5
2D0
330
1F
100
AcDbEntity
  8
0
  6
Continuous
 62
     7
370
     5
100
AcDbLine
 10
4.670064138904789
 20
3.446754834700397
 30
0.0
 11
4.253397458940499
 21
3.446754834700397
 31
0.0
  0
LINE
  5
2D1
330
1F
100
AcDbEntity
  8
0
  6
Continuous
 62
     7
370
     5
100
AcDbLine
 10
5.140022954344894
 20
3.446754834700397
 30
0.0
 11
5.140728363973721
 21
3.447330775824853
 31
0.0
  0
LINE
  5
2D2
330
1F
100
AcDbEntity
  8
0
  6
Continuous
 62
     7
370
     5
100
AcDbLine
 10
5.139730797719913
 20
3.446754834700397
 30
0.0
 11
5.140022954344894
 21
3.446754834700397
 31
0.0
  0
LINE
  5
2D3
330
1F
100
AcDbEntity
  8
0
  6
Continuous
 62
     7
370
     5
100
AcDbLine
 10
3.782733233871567
 20
3.447330775824853
 30
0.0
 11
3.783438643500393
 21
3.446754834700397
 31
0.0
  0
LINE
  5
2D4
330
1F
100
AcDbEntity
  8
0
  6
Continuous
 62
     7
370
     5
100
AcDbLine
 10
3.783438643500393
 20
3.446754834700397
 30
0.0
 11
3.783730800125375
 21
3.446754834700397
 31
0.0
  0
LINE
  5
2D5
330
1F
100
AcDbEntity
  8
0
  6
Continuous
 62
     7
370
     5
100
AcDbLine
 10
3.513814158225455
 20
3.488421503919034
 30
0.0
 11
3.518866766523959
 21
3.488421503919034
 31
0.0
  0
SPLINE
  5
2D6
330
1F
100
AcDbEntity
  8
0
  6
Continuous
 62
     7
370
     5
100
AcDbSpline
210
0.0
220
0.0
230
1.0
 70
     8
 71
     3
 72
     9
 73
     5
 74
     0
 42
0.0000000001
 43
0.0000000001
 40
0.0
 40
0.0
 40
0.0
 40
0.0
 40
0.4267406969176051
 40
1.0
 40
1.0
 40
1.0
 40
1.0
 10
3.545103956763032
 20
3.457171500477295
 30
0.0
 10
3.541371294459689
 20
3.461616293939662
 30
0.0
 10
3.532624384848525
 20
3.472031971409543
 30
0.0
 10
3.523879724449816
 20
3.482449537336138
 30
0.0
 10
3.518866766523959
 20
3.488421503919034
 30
0.0
  0
LINE
  5
2D7
330
1F
100
AcDbEntity
  8
0
  6
Continuous
 62
     7
370
     5
100
AcDbLine
 10
3.545103956763032
 20
3.446754834700397
 30
0.0
 11
3.545103956763032
 21
3.457171500477295
 31
0.0
  0
LINE
  5
2D8
330
1F
100
AcDbEntity
  8
0
  6
Continuous
 62
     7
370
     5
100
AcDbLine
 10
3.545103956763032
 20
3.446754834700397
 30
0.0
 11
3.451314151341979
 21
3.446754834700397
 31
0.0
  0
LINE
  5
2D9
330
1F
100
AcDbEntity
  8
0
  6
Continuous
 62
     7
370
     5
100
AcDbLine
 10
3.451314151341979
 20
3.446754834700397
 30
0.0
 11
3.451314151341979
 21
3.550921498580429
 31
0.0
  0
LINE
  5
2DA
330
1F
100
AcDbEntity
  8
0
  6
Continuous
 62
     7
370
     5
100
AcDbLine
 10
3.513814158225455
 20
3.550921498580429
 30
0.0
 11
3.451314151341979
 21
3.550921498580429
 31
0.0
  0
LINE
  5
2DB
330
1F
100
AcDbEntity
  8
0
  6
Continuous
 62
     7
370
     5
100
AcDbLine
 10
3.513814158225455
 20
3.488421503919034
 30
0.0
 11
3.513814158225455
 21
3.550921498580429
 31
0.0
  0
LINE
  5
2DC
330
1F
100
AcDbEntity
  8
0
  6
Continuous
 62
     7
370
     5
100
AcDbLine
 10
5.378357641082256
 20
3.457171500477295
 30
0.0
 11
5.378357641082256
 21
3.446754834700397
 31
0.0
  0
SPLINE
  5
2DD
330
1F
100
AcDbEntity
  8
0
  6
Continuous
 62
     7
370
     5
100
AcDbSpline
210
0.0
220
0.0
230
1.0
 70
     8
 71
     3
 72
     9
 73
     5
 74
     0
 42
0.0000000001
 43
0.0000000001
 40
0.0
 40
0.0
 40
0.0
 40
0.0
 40
0.8407203207427279
 40
1.0
 40
1.0
 40
1.0
 40
1.0
 10
5.404594831321328
 20
3.488421503919034
 30
0.0
 10
5.397242973414971
 20
3.479663281603611
 30
0.0
 10
5.388498260429011
 20
3.469245759748441
 30
0.0
 10
5.379750915393815
 20
3.458830447993058
 30
0.0
 10
5.378357641082256
 20
3.457171500477295
 30
0.0
  0
LINE
  5
2DE
330
1F
100
AcDbEntity
  8
0
  6
Continuous
 62
     7
370
     5
100
AcDbLine
 10
5.404594831321328
 20
3.488421503919034
 30
0.0
 11
5.409647439619833
 21
3.488421503919034
 31
0.0
  0
LINE
  5
2DF
330
1F
100
AcDbEntity
  8
0
  6
Continuous
 62
     7
370
     5
100
AcDbLine
 10
5.472147446503309
 20
3.550921498580429
 30
0.0
 11
5.409647439619833
 21
3.550921498580429
 31
0.0
  0
LINE
  5
2E0
330
1F
100
AcDbEntity
  8
0
  6
Continuous
 62
     7
370
     5
100
AcDbLine
 10
5.472147446503309
 20
3.550921498580429
 30
0.0
 11
5.472147446503309
 21
3.446754834700397
 31
0.0
  0
LINE
  5
2E1
330
1F
100
AcDbEntity
  8
0
  6
Continuous
 62
     7
370
     5
100
AcDbLine
 10
5.472147446503309
 20
3.446754834700397
 30
0.0
 11
5.378357641082256
 21
3.446754834700397
 31
0.0
  0
LINE
  5
2E2
330
1F
100
AcDbEntity
  8
0
  6
Continuous
 62
     7
370
     5
100
AcDbLine
 10
5.409647439619833
 20
3.550921498580429
 30
0.0
 11
5.409647439619833
 21
3.488421503919034
 31
0.0
  0
LINE
  5
2E3
330
1F
100
AcDbEntity
  8
0
  6
Continuous
 62
     7
370
     5
100
AcDbLine
 10
5.33673079751466
 20
3.457171500477295
 30
0.0
 11
5.33673079751466
 21
3.446754834700397
 31
0.0
  0
LINE
  5
2E4
330
1F
100
AcDbEntity
  8
0
  6
Continuous
 62
     7
370
     5
100
AcDbLine
 10
5.378357641082256
 20
3.457171500477295
 30
0.0
 11
5.33673079751466
 21
3.457171500477295
 31
0.0
  0
LINE
  5
2E5
330
1F
100
AcDbEntity
  8
0
  6
Continuous
 62
     7
370
     5
100
AcDbLine
 10
3.518866766523959
 20
3.488421503919034
 30
0.0
 11
3.524230793447151
 21
3.488421503919034
 31
0.0
  0
LINE
  5
2E6
330
1F
100
AcDbEntity
  8
0
  6
Continuous
 62
     7
370
     5
100
AcDbLine
 10
3.586730800330628
 20
3.457171500477295
 30
0.0
 11
3.545103956763032
 21
3.457171500477295
 31
0.0
  0
LINE
  5
2E7
330
1F
100
AcDbEntity
  8
0
  6
Continuous
 62
     7
370
     5
100
AcDbLine
 10
3.586730800330628
 20
3.457171500477295
 30
0.0
 11
3.586730800330628
 21
3.446754834700397
 31
0.0
  0
LINE
  5
2E8
330
1F
100
AcDbEntity
  8
0
  6
Continuous
 62
     7
370
     5
100
AcDbLine
 10
5.399230804398137
 20
3.488421503919034
 30
0.0
 11
5.404594831321328
 21
3.488421503919034
 31
0.0
  0
LINE
  5
2E9
330
1F
100
AcDbEntity
  8
0
  6
Continuous
 62
     7
370
     5
100
AcDbLine
 10
5.242980787189447
 20
3.457171500477295
 30
0.0
 11
5.242980787189447
 21
3.446754834700397
 31
0.0
  0
LINE
  5
2EA
330
1F
100
AcDbEntity
  8
0
  6
Continuous
 62
     7
370
     5
100
AcDbLine
 10
5.33673079751466
 20
3.457171500477295
 30
0.0
 11
5.335369648794323
 21
3.457171500477295
 31
0.0
  0
LINE
  5
2EB
330
1F
100
AcDbEntity
  8
0
  6
Continuous
 62
     7
370
     5
100
AcDbLine
 10
5.254758668908129
 20
3.457171500477295
 30
0.0
 11
5.242980787189447
 21
3.457171500477295
 31
0.0
  0
LINE
  5
2EC
330
1F
100
AcDbEntity
  8
0
  6
Continuous
 62
     7
370
     5
100
AcDbLine
 10
5.242980787189447
 20
3.457171500477295
 30
0.0
 11
5.242980787189447
 21
3.488421503919034
 31
0.0
  0
LINE
  5
2ED
330
1F
100
AcDbEntity
  8
0
  6
Continuous
 62
     7
370
     5
100
AcDbLine
 10
3.680480810655842
 20
3.457171500477295
 30
0.0
 11
3.668702928937158
 21
3.457171500477295
 31
0.0
  0
LINE
  5
2EE
330
1F
100
AcDbEntity
  8
0
  6
Continuous
 62
     7
370
     5
100
AcDbLine
 10
3.588091949050966
 20
3.457171500477295
 30
0.0
 11
3.586730800330628
 21
3.457171500477295
 31
0.0
  0
LINE
  5
2EF
330
1F
100
AcDbEntity
  8
0
  6
Continuous
 62
     7
370
     5
100
AcDbLine
 10
3.680480810655842
 20
3.488421503919034
 30
0.0
 11
3.680480810655842
 21
3.457171500477295
 31
0.0
  0
LINE
  5
2F0
330
1F
100
AcDbEntity
  8
0
  6
Continuous
 62
     7
370
     5
100
AcDbLine
 10
3.680480810655842
 20
3.457171500477295
 30
0.0
 11
3.680480810655842
 21
3.446754834700397
 31
0.0
  0
LINE
  5
2F1
330
1F
100
AcDbEntity
  8
0
  6
Continuous
 62
     7
370
     5
100
AcDbLine
 10
3.740252506834774
 20
3.446754834700397
 30
0.0
 11
3.701314129987559
 21
3.446754834700397
 31
0.0
  0
LINE
  5
2F2
330
1F
100
AcDbEntity
  8
0
  6
Continuous
 62
     7
370
     5
100
AcDbLine
 10
5.183209091010515
 20
3.446754834700397
 30
0.0
 11
5.222147467857729
 21
3.446754834700397
 31
0.0
  0
LINE
  5
2F3
330
1F
100
AcDbEntity
  8
0
  6
Continuous
 62
     7
370
     5
100
AcDbLine
 10
5.183209091010515
 20
3.446754834700397
 30
0.0
 11
5.182382047231262
 21
3.446754834700397
 31
0.0
  0
LINE
  5
2F4
330
1F
100
AcDbEntity
  8
0
  6
Continuous
 62
     7
370
     5
100
AcDbLine
 10
3.741079550614027
 20
3.446754834700397
 30
0.0
 11
3.740252506834774
 21
3.446754834700397
 31
0.0
  0
LINE
  5
2F5
330
1F
100
AcDbEntity
  8
0
  6
Continuous
 62
     7
370
     5
100
AcDbLine
 10
5.409647439619833
 20
3.550921498580429
 30
0.0
 11
5.399230804398137
 21
3.550921498580429
 31
0.0
  0
LINE
  5
2F6
330
1F
100
AcDbEntity
  8
0
  6
Continuous
 62
     7
370
     5
100
AcDbLine
 10
3.524230793447151
 20
3.550921498580429
 30
0.0
 11
3.513814158225455
 21
3.550921498580429
 31
0.0
  0
SPLINE
  5
2F7
330
1F
100
AcDbEntity
  8
0
  6
Continuous
 62
     7
370
     5
100
AcDbSpline
210
0.0
220
0.0
230
1.0
 70
     8
 71
     3
 72
     8
 73
     4
 74
     0
 42
0.0000000001
 43
0.0000000001
 40
0.0266026912700454
 40
0.0266026912700454
 40
0.0266026912700454
 40
0.0266026912700454
 40
0.0362789997330106
 40
0.0362789997330106
 40
0.0362789997330106
 40
0.0362789997330106
 10
3.701291364624907
 20
3.323147974165209
 30
0.0
 10
3.74296648584798
 20
3.315739119194577
 30
0.0
 10
3.784641610133967
 20
3.308330281452767
 30
0.0
 10
3.826316744532428
 20
3.300921500594627
 30
0.0
  0
SPLINE
  5
2F8
330
1F
100
AcDbEntity
  8
0
  6
Continuous
 62
     7
370
     5
100
AcDbSpline
210
0.0
220
0.0
230
1.0
 70
     8
 71
     3
 72
    11
 73
     7
 74
     0
 42
0.0000000001
 43
0.0000000001
 40
0.0
 40
0.0
 40
0.0
 40
0.0
 40
0.0090697499332473
 40
0.0090697499332473
 40
0.0090697499332473
 40
0.0153194782554187
 40
0.0153194782554187
 40
0.0153194782554187
 40
0.0153194782554187
 10
3.357564132255978
 20
3.384254833927961
 30
0.0
 10
3.396626844792183
 20
3.377310360495047
 30
0.0
 10
3.435689557705648
 20
3.37036588918422
 30
0.0
 10
3.47475227133639
 20
3.363421421908088
 30
0.0
 10
3.501669369328695
 20
3.358636170480269
 30
0.0
 10
3.528586467662868
 20
3.353850920975463
 30
0.0
 10
3.555503566553714
 20
3.349065674601955
 30
0.0
  0
SPLINE
  5
2F9
330
1F
100
AcDbEntity
  8
0
  6
Continuous
 62
     7
370
     5
100
AcDbSpline
210
0.0
220
0.0
230
1.0
 70
     8
 71
     3
 72
    11
 73
     7
 74
     0
 42
0.0000000001
 43
0.0000000001
 40
0.0209595214775853
 40
0.0209595214775853
 40
0.0209595214775853
 40
0.0209595214775853
 40
0.0272092497997396
 40
0.0272092497997396
 40
0.0272092497997396
 40
0.0362789997329988
 40
0.0362789997329988
 40
0.0362789997329988
 40
0.0362789997329988
 10
5.367958031291572
 20
3.349065674601955
 30
0.0
 10
5.394875130182355
 20
3.353850920975451
 30
0.0
 10
5.421792228516465
 20
3.358636170480246
 30
0.0
 10
5.448709326508706
 20
3.363421421908054
 30
0.0
 10
5.487772040139512
 20
3.370365889184197
 30
0.0
 10
5.526834753053042
 20
3.377310360495036
 30
0.0
 10
5.565897465589312
 20
3.384254833927961
 30
0.0
  0
SPLINE
  5
2FA
330
1F
100
AcDbEntity
  8
0
  6
Continuous
 62
     7
370
     5
100
AcDbSpline
210
0.0
220
0.0
230
1.0
 70
     8
 71
     3
 72
     8
 73
     4
 74
     0
 42
0.0000000001
 43
0.0000000001
 40
0.0
 40
0.0
 40
0.0
 40
0.0
 40
0.0096763084629607
 40
0.0096763084629607
 40
0.0096763084629607
 40
0.0096763084629607
 10
5.09714485331286
 20
3.300921500594627
 30
0.0
 10
5.138819987711317
 20
3.308330281452766
 30
0.0
 10
5.180495111997301
 20
3.315739119194575
 30
0.0
 10
5.222170233220372
 20
3.323147974165207
 30
0.0
  0
SPLINE
  5
2FB
330
1F
100
AcDbEntity
  8
0
  6
Continuous
 62
     7
370
     5
100
AcDbSpline
210
0.0
220
0.0
230
1.0
 70
     8
 71
     3
 72
     8
 73
     4
 74
     0
 42
0.0000000001
 43
0.0000000001
 40
0.0
 40
0.0
 40
0.0
 40
0.0
 40
1.0
 40
1.0
 40
1.0
 40
1.0
 10
5.065894718194512
 20
2.884254833927961
 30
0.0
 10
5.07283919369202
 20
2.877310390009845
 30
0.0
 10
5.079783668645661
 20
2.870365945547856
 30
0.0
 10
5.086728143108069
 20
2.863421500594627
 30
0.0
  0
SPLINE
  5
2FC
330
1F
100
AcDbEntity
  8
0
  6
Continuous
 62
     7
370
     5
100
AcDbSpline
210
0.0
220
0.0
230
1.0
 70
     8
 71
     3
 72
     8
 73
     4
 74
     0
 42
0.0000000001
 43
0.0000000001
 40
0.0
 40
0.0
 40
0.0
 40
0.0
 40
1.0
 40
1.0
 40
1.0
 40
1.0
 10
5.086728143108069
 20
2.863421500594628
 30
0.0
 10
5.079783668645663
 20
2.8564770556414
 30
0.0
 10
5.072839193692022
 20
2.849532611179412
 30
0.0
 10
5.065894718194512
 20
2.842588167261294
 30
0.0
  0
SPLINE
  5
2FD
330
1F
100
AcDbEntity
  8
0
  6
Continuous
 62
     7
370
     5
100
AcDbSpline
210
0.0
220
0.0
230
1.0
 70
     8
 71
     3
 72
     8
 73
     4
 74
     0
 42
0.0000000001
 43
0.0000000001
 40
0.0
 40
0.0
 40
0.0
 40
0.0
 40
1.0
 40
1.0
 40
1.0
 40
1.0
 10
5.065894718194512
 20
2.842588167261294
 30
0.0
 10
5.07283919369202
 20
2.835643723343178
 30
0.0
 10
5.079783668645661
 20
2.82869927888119
 30
0.0
 10
5.086728143108069
 20
2.821754833927961
 30
0.0
  0
SPLINE
  5
2FE
330
1F
100
AcDbEntity
  8
0
  6
Continuous
 62
     7
370
     5
100
AcDbSpline
210
0.0
220
0.0
230
1.0
 70
     8
 71
     3
 72
     8
 73
     4
 74
     0
 42
0.0000000001
 43
0.0000000001
 40
0.0
 40
0.0
 40
0.0
 40
0.0
 40
1.0
 40
1.0
 40
1.0
 40
1.0
 10
5.086728143108069
 20
2.821754833927961
 30
0.0
 10
5.079783668645663
 20
2.814810388974734
 30
0.0
 10
5.072839193692022
 20
2.807865944512745
 30
0.0
 10
5.065894718194512
 20
2.800921500594627
 30
0.0
  0
SPLINE
  5
2FF
330
1F
100
AcDbEntity
  8
0
  6
Continuous
 62
     7
370
     5
100
AcDbSpline
210
0.0
220
0.0
230
1.0
 70
     8
 71
     3
 72
     8
 73
     4
 74
     0
 42
0.0000000001
 43
0.0000000001
 40
0.0
 40
0.0
 40
0.0
 40
0.0
 40
1.0
 40
1.0
 40
1.0
 40
1.0
 10
5.065894718194512
 20
2.800921500594628
 30
0.0
 10
5.07283919369202
 20
2.793977056676512
 30
0.0
 10
5.079783668645661
 20
2.787032612214523
 30
0.0
 10
5.086728143108069
 20
2.780088167261293
 30
0.0
  0
SPLINE
  5
300
330
1F
100
AcDbEntity
  8
0
  6
Continuous
 62
     7
370
     5
100
AcDbSpline
210
0.0
220
0.0
230
1.0
 70
     8
 71
     3
 72
     8
 73
     4
 74
     0
 42
0.0000000001
 43
0.0000000001
 40
0.0
 40
0.0
 40
0.0
 40
0.0
 40
1.0
 40
1.0
 40
1.0
 40
1.0
 10
5.086728143108069
 20
2.780088167261294
 30
0.0
 10
5.079783668645663
 20
2.773143722308067
 30
0.0
 10
5.072839193692022
 20
2.766199277846078
 30
0.0
 10
5.065894718194512
 20
2.759254833927961
 30
0.0
  0
LINE
  5
301
330
1F
100
AcDbEntity
  8
0
  6
Continuous
 62
     7
370
     5
100
AcDbLine
 10
5.065894712902887
 20
2.759254813981525
 30
0.0
 11
5.024227829797833
 21
2.759254813981525
 31
0.0
  0
LINE
  5
302
330
1F
100
AcDbEntity
  8
0
  6
Continuous
 62
     7
370
     5
100
AcDbLine
 10
5.024227829797833
 20
2.759254813981525
 30
0.0
 11
5.024227829797833
 21
3.363421500846402
 31
0.0
  0
LINE
  5
303
330
1F
100
AcDbEntity
  8
0
  6
Continuous
 62
     7
370
     5
100
AcDbLine
 10
5.091632557799329
 20
3.363421500846402
 30
0.0
 11
5.024227829797833
 21
3.363421500846402
 31
0.0
  0
SPLINE
  5
304
330
1F
100
AcDbEntity
  8
0
  6
Continuous
 62
     7
370
     5
100
AcDbSpline
210
0.0
220
0.0
230
1.0
 70
     8
 71
     3
 72
     8
 73
     4
 74
     0
 42
0.0000000001
 43
0.0000000001
 40
0.0004200360221626
 40
0.0004200360221626
 40
0.0004200360221626
 40
0.0004200360221626
 40
0.0105212046604048
 40
0.0105212046604048
 40
0.0105212046604048
 40
0.0105212046604048
 10
5.091632565410158
 20
3.363421500594628
 30
0.0
 10
5.135137540501595
 20
3.371155581825074
 30
0.0
 10
5.178642504572676
 20
3.378889725046099
 30
0.0
 10
5.22214746558931
 20
3.386623885448281
 30
0.0
  0
LINE
  5
305
330
1F
100
AcDbEntity
  8
0
  6
Continuous
 62
     7
370
     5
100
AcDbLine
 10
5.222147467857729
 20
3.446754834700397
 30
0.0
 11
5.222147467857729
 21
3.386623885536169
 31
0.0
  0
LINE
  5
306
330
1F
100
AcDbEntity
  8
0
  6
Continuous
 62
     7
370
     5
100
AcDbLine
 10
5.263449937394743
 20
3.446754834700397
 30
0.0
 11
5.222147467857729
 21
3.446754834700397
 31
0.0
  0
LINE
  5
307
330
1F
100
AcDbEntity
  8
0
  6
Continuous
 62
     7
370
     5
100
AcDbLine
 10
5.263449937394743
 20
3.446754834700397
 30
0.0
 11
5.263449937394743
 21
3.321754833155525
 31
0.0
  0
LINE
  5
308
330
1F
100
AcDbEntity
  8
0
  6
Continuous
 62
     7
370
     5
100
AcDbLine
 10
5.326678380307709
 20
3.321754833155525
 30
0.0
 11
5.263449937394743
 21
3.321754833155525
 31
0.0
  0
LINE
  5
309
330
1F
100
AcDbEntity
  8
0
  6
Continuous
 62
     7
370
     5
100
AcDbLine
 10
5.326678380307709
 20
3.321754833155525
 30
0.0
 11
5.326678380307709
 21
3.446754834700397
 31
0.0
  0
LINE
  5
30A
330
1F
100
AcDbEntity
  8
0
  6
Continuous
 62
     7
370
     5
100
AcDbLine
 10
5.503397449945047
 20
3.446754834700397
 30
0.0
 11
5.326678380307709
 21
3.446754834700397
 31
0.0
  0
LINE
  5
30B
330
1F
100
AcDbEntity
  8
0
  6
Continuous
 62
     7
370
     5
100
AcDbLine
 10
5.503397449945047
 20
3.446754834700397
 30
0.0
 11
5.503397449945047
 21
3.467588166254195
 31
0.0
  0
LINE
  5
30C
330
1F
100
AcDbEntity
  8
0
  6
Continuous
 62
     7
370
     5
100
AcDbLine
 10
6.815897398944747
 20
3.467588166254195
 30
0.0
 11
5.503397449945047
 21
3.467588166254195
 31
0.0
  0
LINE
  5
30D
330
1F
100
AcDbEntity
  8
0
  6
Continuous
 62
     7
370
     5
100
AcDbLine
 10
6.815897398944747
 20
3.384254833927961
 30
0.0
 11
6.815897398944747
 21
3.467588166254195
 31
0.0
  0
LINE
  5
30E
330
1F
100
AcDbEntity
  8
0
  6
Continuous
 62
     7
370
     5
100
AcDbLine
 10
6.815897398944747
 20
3.384254833927961
 30
0.0
 11
5.565897456828523
 21
3.384254833927961
 31
0.0
  0
ARC
  5
30F
330
1F
100
AcDbEntity
  8
0
  6
Continuous
 62
     7
370
     5
100
AcDbCircle
 10
5.295064132255977
 20
3.311338167261294
 30
0.0
 40
0.0728938990355959
100
AcDbArc
 50
180.0
 51
0.0000000000000041
  0
LINE
  5
310
330
1F
100
AcDbEntity
  8
0
  6
Continuous
 62
     7
370
     5
100
AcDbLine
 10
5.097144863009598
 20
3.300921501601727
 30
0.0
 11
5.086728130011253
 21
3.300921501601727
 31
0.0
  0
LINE
  5
311
330
1F
100
AcDbEntity
  8
0
  6
Continuous
 62
     7
370
     5
100
AcDbLine
 10
5.086728130011253
 20
3.181129836000826
 30
0.0
 11
5.086728130011253
 21
3.300921501601727
 31
0.0
  0
SPLINE
  5
312
330
1F
100
AcDbEntity
  8
0
  6
Continuous
 62
     7
370
     5
100
AcDbSpline
210
0.0
220
0.0
230
1.0
 70
     8
 71
     3
 72
    10
 73
     6
 74
     0
 42
0.0000000001
 43
0.0000000001
 40
0.0
 40
0.0
 40
0.0
 40
0.0
 40
0.5
 40
0.5
 40
1.0
 40
1.0
 40
1.0
 40
1.0
 10
5.081519787456869
 20
3.175921500594628
 30
0.0
 10
5.082877249919821
 20
3.175921500594628
 30
0.0
 10
5.084232076823765
 20
3.176476917869082
 30
0.0
 10
5.086171319264146
 20
3.178415148748109
 30
0.0
 10
5.086728143108069
 20
3.179768522335042
 30
0.0
 10
5.086728143108069
 20
3.181129833927961
 30
0.0
  0
LINE
  5
313
330
1F
100
AcDbEntity
  8
0
  6
Continuous
 62
     7
370
     5
100
AcDbLine
 10
5.0784687898683
 20
3.175921493945816
 30
0.0
 11
5.081519763512081
 21
3.175921493945816
 31
0.0
  0
SPLINE
  5
314
330
1F
100
AcDbEntity
  8
0
  6
Continuous
 62
     7
370
     5
100
AcDbSpline
210
0.0
220
0.0
230
1.0
 70
     8
 71
     3
 72
    14
 73
    10
 74
     0
 42
0.0000000001
 43
0.0000000001
 40
0.0
 40
0.0
 40
0.0
 40
0.0
 40
0.25
 40
0.25
 40
0.5
 40
0.5
 40
0.75
 40
0.75
 40
1.0
 40
1.0
 40
1.0
 40
1.0
 10
5.078468803178981
 20
3.175921500594628
 30
0.0
 10
5.077450436390248
 20
3.175921500594628
 30
0.0
 10
5.076428663747058
 20
3.175613865540715
 30
0.0
 10
5.074722705282235
 20
3.174474264154199
 30
0.0
 10
5.074051732111443
 20
3.17365725780368
 30
0.0
 10
5.073265407400727
 20
3.171763369678217
 30
0.0
 10
5.073159219669922
 20
3.17070667981484
 30
0.0
 10
5.073562757616874
 20
3.168682797925915
 30
0.0
 10
5.074064158286904
 20
3.167752097160174
 30
0.0
 10
5.074785939192184
 20
3.167030319442614
 30
0.0
  0
SPLINE
  5
315
330
1F
100
AcDbEntity
  8
0
  6
Continuous
 62
     7
370
     5
100
AcDbSpline
210
0.0
220
0.0
230
1.0
 70
     8
 71
     3
 72
     8
 73
     4
 74
     0
 42
0.0000000001
 43
0.0000000001
 40
0.0
 40
0.0
 40
0.0
 40
0.0
 40
1.0
 40
1.0
 40
1.0
 40
1.0
 10
5.074785939192184
 20
3.167030319442614
 30
0.0
 10
5.078766673998773
 20
3.163049602216804
 30
0.0
 10
5.082747408634192
 20
3.159068884819821
 30
0.0
 10
5.086728143108068
 20
3.155088167261294
 30
0.0
  0
SPLINE
  5
316
330
1F
100
AcDbEntity
  8
0
  6
Continuous
 62
     7
370
     5
100
AcDbSpline
210
0.0
220
0.0
230
1.0
 70
     8
 71
     3
 72
     8
 73
     4
 74
     0
 42
0.0000000001
 43
0.0000000001
 40
0.0
 40
0.0
 40
0.0
 40
0.0
 40
1.0
 40
1.0
 40
1.0
 40
1.0
 10
5.086728143108069
 20
3.155088167261294
 30
0.0
 10
5.079783668645663
 20
3.148143722308067
 30
0.0
 10
5.072839193692022
 20
3.141199277846078
 30
0.0
 10
5.065894718194512
 20
3.134254833927961
 30
0.0
  0
SPLINE
  5
317
330
1F
100
AcDbEntity
  8
0
  6
Continuous
 62
     7
370
     5
100
AcDbSpline
210
0.0
220
0.0
230
1.0
 70
     8
 71
     3
 72
     8
 73
     4
 74
     0
 42
0.0000000001
 43
0.0000000001
 40
0.0
 40
0.0
 40
0.0
 40
0.0
 40
1.0
 40
1.0
 40
1.0
 40
1.0
 10
5.065894718194512
 20
3.134254833927961
 30
0.0
 10
5.07283919369202
 20
3.127310390009845
 30
0.0
 10
5.079783668645661
 20
3.120365945547856
 30
0.0
 10
5.086728143108069
 20
3.113421500594627
 30
0.0
  0
SPLINE
  5
318
330
1F
100
AcDbEntity
  8
0
  6
Continuous
 62
     7
370
     5
100
AcDbSpline
210
0.0
220
0.0
230
1.0
 70
     8
 71
     3
 72
     8
 73
     4
 74
     0
 42
0.0000000001
 43
0.0000000001
 40
0.0
 40
0.0
 40
0.0
 40
0.0
 40
1.0
 40
1.0
 40
1.0
 40
1.0
 10
5.086728143108069
 20
3.113421500594627
 30
0.0
 10
5.079783668645663
 20
3.106477055641401
 30
0.0
 10
5.072839193692022
 20
3.099532611179411
 30
0.0
 10
5.065894718194512
 20
3.092588167261294
 30
0.0
  0
SPLINE
  5
319
330
1F
100
AcDbEntity
  8
0
  6
Continuous
 62
     7
370
     5
100
AcDbSpline
210
0.0
220
0.0
230
1.0
 70
     8
 71
     3
 72
     8
 73
     4
 74
     0
 42
0.0000000001
 43
0.0000000001
 40
0.0
 40
0.0
 40
0.0
 40
0.0
 40
1.0
 40
1.0
 40
1.0
 40
1.0
 10
5.065894718194512
 20
3.092588167261294
 30
0.0
 10
5.07283919369202
 20
3.085643723343178
 30
0.0
 10
5.079783668645661
 20
3.07869927888119
 30
0.0
 10
5.086728143108069
 20
3.071754833927961
 30
0.0
  0
SPLINE
  5
31A
330
1F
100
AcDbEntity
  8
0
  6
Continuous
 62
     7
370
     5
100
AcDbSpline
210
0.0
220
0.0
230
1.0
 70
     8
 71
     3
 72
     8
 73
     4
 74
     0
 42
0.0000000001
 43
0.0000000001
 40
0.0
 40
0.0
 40
0.0
 40
0.0
 40
1.0
 40
1.0
 40
1.0
 40
1.0
 10
5.086728143108069
 20
3.071754833927961
 30
0.0
 10
5.079783668645663
 20
3.064810388974734
 30
0.0
 10
5.072839193692022
 20
3.057865944512745
 30
0.0
 10
5.065894718194512
 20
3.050921500594627
 30
0.0
  0
SPLINE
  5
31B
330
1F
100
AcDbEntity
  8
0
  6
Continuous
 62
     7
370
     5
100
AcDbSpline
210
0.0
220
0.0
230
1.0
 70
     8
 71
     3
 72
     8
 73
     4
 74
     0
 42
0.0000000001
 43
0.0000000001
 40
0.0
 40
0.0
 40
0.0
 40
0.0
 40
1.0
 40
1.0
 40
1.0
 40
1.0
 10
5.065894718194512
 20
3.050921500594628
 30
0.0
 10
5.07283919369202
 20
3.043977056676512
 30
0.0
 10
5.079783668645661
 20
3.037032612214523
 30
0.0
 10
5.086728143108068
 20
3.030088167261294
 30
0.0
  0
SPLINE
  5
31C
330
1F
100
AcDbEntity
  8
0
  6
Continuous
 62
     7
370
     5
100
AcDbSpline
210
0.0
220
0.0
230
1.0
 70
     8
 71
     3
 72
     8
 73
     4
 74
     0
 42
0.0000000001
 43
0.0000000001
 40
0.0
 40
0.0
 40
0.0
 40
0.0
 40
1.0
 40
1.0
 40
1.0
 40
1.0
 10
5.086728143108069
 20
3.030088167261294
 30
0.0
 10
5.079783668645663
 20
3.023143722308067
 30
0.0
 10
5.072839193692022
 20
3.016199277846078
 30
0.0
 10
5.065894718194512
 20
3.009254833927961
 30
0.0
  0
SPLINE
  5
31D
330
1F
100
AcDbEntity
  8
0
  6
Continuous
 62
     7
370
     5
100
AcDbSpline
210
0.0
220
0.0
230
1.0
 70
     8
 71
     3
 72
     8
 73
     4
 74
     0
 42
0.0000000001
 43
0.0000000001
 40
0.0
 40
0.0
 40
0.0
 40
0.0
 40
1.0
 40
1.0
 40
1.0
 40
1.0
 10
5.065894718194512
 20
3.009254833927961
 30
0.0
 10
5.07283919369202
 20
3.002310390009845
 30
0.0
 10
5.079783668645661
 20
2.995365945547856
 30
0.0
 10
5.086728143108069
 20
2.988421500594627
 30
0.0
  0
SPLINE
  5
31E
330
1F
100
AcDbEntity
  8
0
  6
Continuous
 62
     7
370
     5
100
AcDbSpline
210
0.0
220
0.0
230
1.0
 70
     8
 71
     3
 72
     8
 73
     4
 74
     0
 42
0.0000000001
 43
0.0000000001
 40
0.0
 40
0.0
 40
0.0
 40
0.0
 40
1.0
 40
1.0
 40
1.0
 40
1.0
 10
5.086728143108069
 20
2.988421500594627
 30
0.0
 10
5.079783668645663
 20
2.9814770556414
 30
0.0
 10
5.072839193692022
 20
2.974532611179412
 30
0.0
 10
5.065894718194512
 20
2.967588167261294
 30
0.0
  0
SPLINE
  5
31F
330
1F
100
AcDbEntity
  8
0
  6
Continuous
 62
     7
370
     5
100
AcDbSpline
210
0.0
220
0.0
230
1.0
 70
     8
 71
     3
 72
     8
 73
     4
 74
     0
 42
0.0000000001
 43
0.0000000001
 40
0.0
 40
0.0
 40
0.0
 40
0.0
 40
1.0
 40
1.0
 40
1.0
 40
1.0
 10
5.065894718194512
 20
2.967588167261294
 30
0.0
 10
5.07283919369202
 20
2.960643723343178
 30
0.0
 10
5.079783668645661
 20
2.95369927888119
 30
0.0
 10
5.086728143108068
 20
2.946754833927961
 30
0.0
  0
SPLINE
  5
320
330
1F
100
AcDbEntity
  8
0
  6
Continuous
 62
     7
370
     5
100
AcDbSpline
210
0.0
220
0.0
230
1.0
 70
     8
 71
     3
 72
     8
 73
     4
 74
     0
 42
0.0000000001
 43
0.0000000001
 40
0.0
 40
0.0
 40
0.0
 40
0.0
 40
1.0
 40
1.0
 40
1.0
 40
1.0
 10
5.086728143108069
 20
2.946754833927961
 30
0.0
 10
5.079783668645663
 20
2.939810388974734
 30
0.0
 10
5.072839193692022
 20
2.932865944512745
 30
0.0
 10
5.065894718194512
 20
2.925921500594627
 30
0.0
  0
SPLINE
  5
321
330
1F
100
AcDbEntity
  8
0
  6
Continuous
 62
     7
370
     5
100
AcDbSpline
210
0.0
220
0.0
230
1.0
 70
     8
 71
     3
 72
     8
 73
     4
 74
     0
 42
0.0000000001
 43
0.0000000001
 40
0.0
 40
0.0
 40
0.0
 40
0.0
 40
1.0
 40
1.0
 40
1.0
 40
1.0
 10
5.065894718194512
 20
2.925921500594627
 30
0.0
 10
5.07283919369202
 20
2.918977056676512
 30
0.0
 10
5.079783668645661
 20
2.912032612214523
 30
0.0
 10
5.086728143108069
 20
2.905088167261294
 30
0.0
  0
SPLINE
  5
322
330
1F
100
AcDbEntity
  8
0
  6
Continuous
 62
     7
370
     5
100
AcDbSpline
210
0.0
220
0.0
230
1.0
 70
     8
 71
     3
 72
     8
 73
     4
 74
     0
 42
0.0000000001
 43
0.0000000001
 40
0.0
 40
0.0
 40
0.0
 40
0.0
 40
1.0
 40
1.0
 40
1.0
 40
1.0
 10
5.086728143108069
 20
2.905088167261294
 30
0.0
 10
5.079783668645663
 20
2.898143722308067
 30
0.0
 10
5.072839193692022
 20
2.891199277846078
 30
0.0
 10
5.065894718194512
 20
2.884254833927961
 30
0.0
  0
LINE
  5
323
330
1F
100
AcDbEntity
  8
0
  6
Continuous
 62
     7
370
     5
100
AcDbLine
 10
5.367958018997356
 20
3.349065675158348
 30
0.0
 11
5.367958018997356
 21
3.311338167378627
 31
0.0
  0
LINE
  5
324
330
1F
100
AcDbEntity
  8
0
  6
Continuous
 62
     7
370
     5
100
AcDbLine
 10
5.222170249816772
 20
3.311338167378627
 30
0.0
 11
5.222170249816772
 21
3.323147973172964
 31
0.0
  0
SPLINE
  5
325
330
1F
100
AcDbEntity
  8
0
  6
Continuous
 62
     7
370
     5
100
AcDbSpline
210
0.0
220
0.0
230
1.0
 70
     8
 71
     3
 72
     9
 73
     5
 74
     0
 42
0.0000000001
 43
0.0000000001
 40
0.0
 40
0.0
 40
0.0
 40
0.0
 40
0.4820490916691788
 40
0.9999999999999998
 40
0.9999999999999998
 40
0.9999999999999998
 40
0.9999999999999998
 10
3.701314129987559
 20
3.403361055572369
 30
0.0
 10
3.751622470516653
 20
3.396935704754071
 30
0.0
 10
3.855985991574005
 20
3.383606458979436
 30
0.0
 10
3.960351537253402
 20
3.37030895507318
 30
0.0
 10
4.014407766436487
 20
3.363421500846402
 30
0.0
  0
SPLINE
  5
326
330
1F
100
AcDbEntity
  8
0
  6
Continuous
 62
     7
370
     5
100
AcDbSpline
210
0.0
220
0.0
230
1.0
 70
     8
 71
     3
 72
     8
 73
     4
 74
     0
 42
0.0000000001
 43
0.0000000001
 40
0.0169768631721969
 40
0.0169768631721969
 40
0.0169768631721969
 40
0.0169768631721969
 40
0.0270780318104421
 40
0.0270780318104421
 40
0.0270780318104421
 40
0.0270780318104421
 10
3.701314132255978
 20
3.386623885448281
 30
0.0
 10
3.744819093272614
 20
3.378889725046099
 30
0.0
 10
3.788324057343694
 20
3.371155581825074
 30
0.0
 10
3.831829032435131
 20
3.363421500594627
 30
0.0
  0
SPLINE
  5
327
330
1F
100
AcDbEntity
  8
0
  6
Continuous
 62
     7
370
     5
100
AcDbSpline
210
0.0
220
0.0
230
1.0
 70
     8
 71
     3
 72
     8
 73
     4
 74
     0
 42
0.0000000001
 43
0.0000000001
 40
0.0
 40
0.0
 40
0.0
 40
0.0
 40
1.0
 40
1.0
 40
1.0
 40
1.0
 10
3.83673345473722
 20
2.905088167261294
 30
0.0
 10
3.843677929199625
 20
2.912032612214521
 30
0.0
 10
3.850622404153266
 20
2.91897705667651
 30
0.0
 10
3.857566879650775
 20
2.925921500594627
 30
0.0
  0
SPLINE
  5
328
330
1F
100
AcDbEntity
  8
0
  6
Continuous
 62
     7
370
     5
100
AcDbSpline
210
0.0
220
0.0
230
1.0
 70
     8
 71
     3
 72
     8
 73
     4
 74
     0
 42
0.0000000001
 43
0.0000000001
 40
0.0
 40
0.0
 40
0.0
 40
0.0
 40
1.0
 40
1.0
 40
1.0
 40
1.0
 10
3.857566879650775
 20
2.925921500594627
 30
0.0
 10
3.850622404153268
 20
2.932865944512743
 30
0.0
 10
3.843677929199627
 20
2.939810388974732
 30
0.0
 10
3.83673345473722
 20
2.94675483392796
 30
0.0
  0
SPLINE
  5
329
330
1F
100
AcDbEntity
  8
0
  6
Continuous
 62
     7
370
     5
100
AcDbSpline
210
0.0
220
0.0
230
1.0
 70
     8
 71
     3
 72
     8
 73
     4
 74
     0
 42
0.0000000001
 43
0.0000000001
 40
0.0
 40
0.0
 40
0.0
 40
0.0
 40
1.0
 40
1.0
 40
1.0
 40
1.0
 10
3.83673345473722
 20
2.94675483392796
 30
0.0
 10
3.843677929199625
 20
2.953699278881188
 30
0.0
 10
3.850622404153266
 20
2.960643723343176
 30
0.0
 10
3.857566879650775
 20
2.967588167261294
 30
0.0
  0
SPLINE
  5
32A
330
1F
100
AcDbEntity
  8
0
  6
Continuous
 62
     7
370
     5
100
AcDbSpline
210
0.0
220
0.0
230
1.0
 70
     8
 71
     3
 72
     8
 73
     4
 74
     0
 42
0.0000000001
 43
0.0000000001
 40
0.0
 40
0.0
 40
0.0
 40
0.0
 40
1.0
 40
1.0
 40
1.0
 40
1.0
 10
3.857566879650775
 20
2.967588167261294
 30
0.0
 10
3.850622404153268
 20
2.97453261117941
 30
0.0
 10
3.843677929199627
 20
2.981477055641398
 30
0.0
 10
3.83673345473722
 20
2.988421500594627
 30
0.0
  0
SPLINE
  5
32B
330
1F
100
AcDbEntity
  8
0
  6
Continuous
 62
     7
370
     5
100
AcDbSpline
210
0.0
220
0.0
230
1.0
 70
     8
 71
     3
 72
     8
 73
     4
 74
     0
 42
0.0000000001
 43
0.0000000001
 40
0.0
 40
0.0
 40
0.0
 40
0.0
 40
1.0
 40
1.0
 40
1.0
 40
1.0
 10
3.83673345473722
 20
2.988421500594627
 30
0.0
 10
3.843677929199625
 20
2.995365945547854
 30
0.0
 10
3.850622404153266
 20
3.002310390009843
 30
0.0
 10
3.857566879650775
 20
3.009254833927961
 30
0.0
  0
SPLINE
  5
32C
330
1F
100
AcDbEntity
  8
0
  6
Continuous
 62
     7
370
     5
100
AcDbSpline
210
0.0
220
0.0
230
1.0
 70
     8
 71
     3
 72
     8
 73
     4
 74
     0
 42
0.0000000001
 43
0.0000000001
 40
0.0
 40
0.0
 40
0.0
 40
0.0
 40
1.0
 40
1.0
 40
1.0
 40
1.0
 10
3.857566879650775
 20
3.009254833927961
 30
0.0
 10
3.850622404153268
 20
3.016199277846077
 30
0.0
 10
3.843677929199627
 20
3.023143722308065
 30
0.0
 10
3.83673345473722
 20
3.030088167261294
 30
0.0
  0
SPLINE
  5
32D
330
1F
100
AcDbEntity
  8
0
  6
Continuous
 62
     7
370
     5
100
AcDbSpline
210
0.0
220
0.0
230
1.0
 70
     8
 71
     3
 72
     8
 73
     4
 74
     0
 42
0.0000000001
 43
0.0000000001
 40
0.0
 40
0.0
 40
0.0
 40
0.0
 40
1.0
 40
1.0
 40
1.0
 40
1.0
 10
3.83673345473722
 20
3.030088167261294
 30
0.0
 10
3.843677929199625
 20
3.037032612214521
 30
0.0
 10
3.850622404153266
 20
3.04397705667651
 30
0.0
 10
3.857566879650775
 20
3.050921500594627
 30
0.0
  0
SPLINE
  5
32E
330
1F
100
AcDbEntity
  8
0
  6
Continuous
 62
     7
370
     5
100
AcDbSpline
210
0.0
220
0.0
230
1.0
 70
     8
 71
     3
 72
     8
 73
     4
 74
     0
 42
0.0000000001
 43
0.0000000001
 40
0.0
 40
0.0
 40
0.0
 40
0.0
 40
1.0
 40
1.0
 40
1.0
 40
1.0
 10
3.857566879650775
 20
3.050921500594628
 30
0.0
 10
3.850622404153268
 20
3.057865944512743
 30
0.0
 10
3.843677929199627
 20
3.064810388974732
 30
0.0
 10
3.83673345473722
 20
3.071754833927961
 30
0.0
  0
SPLINE
  5
32F
330
1F
100
AcDbEntity
  8
0
  6
Continuous
 62
     7
370
     5
100
AcDbSpline
210
0.0
220
0.0
230
1.0
 70
     8
 71
     3
 72
     8
 73
     4
 74
     0
 42
0.0000000001
 43
0.0000000001
 40
0.0
 40
0.0
 40
0.0
 40
0.0
 40
1.0
 40
1.0
 40
1.0
 40
1.0
 10
3.83673345473722
 20
3.07175483392796
 30
0.0
 10
3.843677929199625
 20
3.078699278881188
 30
0.0
 10
3.850622404153266
 20
3.085643723343177
 30
0.0
 10
3.857566879650775
 20
3.092588167261294
 30
0.0
  0
SPLINE
  5
330
330
1F
100
AcDbEntity
  8
0
  6
Continuous
 62
     7
370
     5
100
AcDbSpline
210
0.0
220
0.0
230
1.0
 70
     8
 71
     3
 72
     8
 73
     4
 74
     0
 42
0.0000000001
 43
0.0000000001
 40
0.0
 40
0.0
 40
0.0
 40
0.0
 40
1.0
 40
1.0
 40
1.0
 40
1.0
 10
3.857566879650775
 20
3.092588167261294
 30
0.0
 10
3.850622404153268
 20
3.099532611179409
 30
0.0
 10
3.843677929199627
 20
3.106477055641398
 30
0.0
 10
3.83673345473722
 20
3.113421500594627
 30
0.0
  0
SPLINE
  5
331
330
1F
100
AcDbEntity
  8
0
  6
Continuous
 62
     7
370
     5
100
AcDbSpline
210
0.0
220
0.0
230
1.0
 70
     8
 71
     3
 72
     8
 73
     4
 74
     0
 42
0.0000000001
 43
0.0000000001
 40
0.0
 40
0.0
 40
0.0
 40
0.0
 40
1.0
 40
1.0
 40
1.0
 40
1.0
 10
3.83673345473722
 20
3.113421500594627
 30
0.0
 10
3.843677929199625
 20
3.120365945547854
 30
0.0
 10
3.850622404153266
 20
3.127310390009843
 30
0.0
 10
3.857566879650775
 20
3.134254833927961
 30
0.0
  0
SPLINE
  5
332
330
1F
100
AcDbEntity
  8
0
  6
Continuous
 62
     7
370
     5
100
AcDbSpline
210
0.0
220
0.0
230
1.0
 70
     8
 71
     3
 72
     8
 73
     4
 74
     0
 42
0.0000000001
 43
0.0000000001
 40
0.0
 40
0.0
 40
0.0
 40
0.0
 40
1.0
 40
1.0
 40
1.0
 40
1.0
 10
3.857566879650775
 20
3.134254833927961
 30
0.0
 10
3.850622404153268
 20
3.141199277846076
 30
0.0
 10
3.843677929199627
 20
3.148143722308065
 30
0.0
 10
3.83673345473722
 20
3.155088167261294
 30
0.0
  0
SPLINE
  5
333
330
1F
100
AcDbEntity
  8
0
  6
Continuous
 62
     7
370
     5
100
AcDbSpline
210
0.0
220
0.0
230
1.0
 70
     8
 71
     3
 72
     8
 73
     4
 74
     0
 42
0.0000000001
 43
0.0000000001
 40
0.0
 40
0.0
 40
0.0
 40
0.0
 40
1.0
 40
1.0
 40
1.0
 40
1.0
 10
3.83673345473722
 20
3.155088167261294
 30
0.0
 10
3.840714189211095
 20
3.159068884819821
 30
0.0
 10
3.844694923846514
 20
3.163049602216803
 30
0.0
 10
3.848675658653104
 20
3.167030319442614
 30
0.0
  0
SPLINE
  5
334
330
1F
100
AcDbEntity
  8
0
  6
Continuous
 62
     7
370
     5
100
AcDbSpline
210
0.0
220
0.0
230
1.0
 70
     8
 71
     3
 72
    14
 73
    10
 74
     0
 42
0.0000000001
 43
0.0000000001
 40
0.0
 40
0.0
 40
0.0
 40
0.0
 40
0.25
 40
0.25
 40
0.5
 40
0.5
 40
0.75
 40
0.75
 40
1.0
 40
1.0
 40
1.0
 40
1.0
 10
3.848675658653104
 20
3.167030319442614
 30
0.0
 10
3.849401857405063
 20
3.167756514987341
 30
0.0
 10
3.849902470745815
 20
3.168692766611743
 30
0.0
 10
3.850301935265539
 20
3.170712763830465
 30
0.0
 10
3.850195383063772
 20
3.17176380669896
 30
0.0
 10
3.849412928421335
 20
3.173651384468699
 30
0.0
 10
3.84873171834534
 20
3.174479041800882
 30
0.0
 10
3.847040213256889
 20
3.175609017791261
 30
0.0
 10
3.846012863384588
 20
3.175921500594628
 30
0.0
 10
3.844992794666308
 20
3.175921500594628
 30
0.0
  0
LINE
  5
335
330
1F
100
AcDbEntity
  8
0
  6
Continuous
 62
     7
370
     5
100
AcDbLine
 10
3.841941834333207
 20
3.175921493945816
 30
0.0
 11
3.844992807976988
 21
3.175921493945816
 31
0.0
  0
SPLINE
  5
336
330
1F
100
AcDbEntity
  8
0
  6
Continuous
 62
     7
370
     5
100
AcDbSpline
210
0.0
220
0.0
230
1.0
 70
     8
 71
     3
 72
    10
 73
     6
 74
     0
 42
0.0000000001
 43
0.0000000001
 40
0.0
 40
0.0
 40
0.0
 40
0.0
 40
0.5
 40
0.5
 40
1.0
 40
1.0
 40
1.0
 40
1.0
 10
3.83673345473722
 20
3.181129833927961
 30
0.0
 10
3.83673345473722
 20
3.179772789110709
 30
0.0
 10
3.837292827545713
 20
3.178411774474096
 30
0.0
 10
3.839230122026033
 20
3.176477145162588
 30
0.0
 10
3.840585243335161
 20
3.175921500594628
 30
0.0
 10
3.841941810388418
 20
3.175921500594628
 30
0.0
  0
LINE
  5
337
330
1F
100
AcDbEntity
  8
0
  6
Continuous
 62
     7
370
     5
100
AcDbLine
 10
3.836733467834035
 20
3.300921501601727
 30
0.0
 11
3.836733467834035
 21
3.181129836000826
 31
0.0
  0
LINE
  5
338
330
1F
100
AcDbEntity
  8
0
  6
Continuous
 62
     7
370
     5
100
AcDbLine
 10
3.836733467834035
 20
3.300921501601727
 30
0.0
 11
3.82631673483569
 21
3.300921501601727
 31
0.0
  0
ARC
  5
339
330
1F
100
AcDbEntity
  8
0
  6
Continuous
 62
     7
370
     5
100
AcDbCircle
 10
3.62839746558931
 20
3.311338167261294
 30
0.0
 40
0.0728938990355963
100
AcDbArc
 50
180.0
 51
0.0000000000000014
  0
LINE
  5
33A
330
1F
100
AcDbEntity
  8
0
  6
Continuous
 62
     7
370
     5
100
AcDbLine
 10
3.357564141016765
 20
3.384254833927961
 30
0.0
 11
2.107564198900541
 21
3.384254833927961
 31
0.0
  0
LINE
  5
33B
330
1F
100
AcDbEntity
  8
0
  6
Continuous
 62
     7
370
     5
100
AcDbLine
 10
2.107564198900541
 20
3.467588166254195
 30
0.0
 11
2.107564198900541
 21
3.384254833927961
 31
0.0
  0
LINE
  5
33C
330
1F
100
AcDbEntity
  8
0
  6
Continuous
 62
     7
370
     5
100
AcDbLine
 10
3.420064147900241
 20
3.467588166254195
 30
0.0
 11
2.107564198900541
 21
3.467588166254195
 31
0.0
  0
LINE
  5
33D
330
1F
100
AcDbEntity
  8
0
  6
Continuous
 62
     7
370
     5
100
AcDbLine
 10
3.420064147900241
 20
3.467588166254195
 30
0.0
 11
3.420064147900241
 21
3.446754834700397
 31
0.0
  0
LINE
  5
33E
330
1F
100
AcDbEntity
  8
0
  6
Continuous
 62
     7
370
     5
100
AcDbLine
 10
3.59678321753758
 20
3.446754834700397
 30
0.0
 11
3.420064147900241
 21
3.446754834700397
 31
0.0
  0
LINE
  5
33F
330
1F
100
AcDbEntity
  8
0
  6
Continuous
 62
     7
370
     5
100
AcDbLine
 10
3.59678321753758
 20
3.446754834700397
 30
0.0
 11
3.59678321753758
 21
3.321754833155525
 31
0.0
  0
LINE
  5
340
330
1F
100
AcDbEntity
  8
0
  6
Continuous
 62
     7
370
     5
100
AcDbLine
 10
3.660011660450545
 20
3.321754833155525
 30
0.0
 11
3.59678321753758
 21
3.321754833155525
 31
0.0
  0
LINE
  5
341
330
1F
100
AcDbEntity
  8
0
  6
Continuous
 62
     7
370
     5
100
AcDbLine
 10
3.660011660450545
 20
3.321754833155525
 30
0.0
 11
3.660011660450545
 21
3.446754834700397
 31
0.0
  0
LINE
  5
342
330
1F
100
AcDbEntity
  8
0
  6
Continuous
 62
     7
370
     5
100
AcDbLine
 10
3.701314129987559
 20
3.446754834700397
 30
0.0
 11
3.660011660450545
 21
3.446754834700397
 31
0.0
  0
LINE
  5
343
330
1F
100
AcDbEntity
  8
0
  6
Continuous
 62
     7
370
     5
100
AcDbLine
 10
3.920932850711134
 20
3.363421500846402
 30
0.0
 11
3.831829040045958
 21
3.363421500846402
 31
0.0
  0
LINE
  5
344
330
1F
100
AcDbEntity
  8
0
  6
Continuous
 62
     7
370
     5
100
AcDbLine
 10
3.920932850711134
 20
2.759254813981525
 30
0.0
 11
3.920932850711134
 21
3.363421500846402
 31
0.0
  0
LINE
  5
345
330
1F
100
AcDbEntity
  8
0
  6
Continuous
 62
     7
370
     5
100
AcDbLine
 10
3.920932850711134
 20
2.759254813981525
 30
0.0
 11
3.8575668849424
 21
2.759254813981525
 31
0.0
  0
SPLINE
  5
346
330
1F
100
AcDbEntity
  8
0
  6
Continuous
 62
     7
370
     5
100
AcDbSpline
210
0.0
220
0.0
230
1.0
 70
     8
 71
     3
 72
     8
 73
     4
 74
     0
 42
0.0000000001
 43
0.0000000001
 40
0.0
 40
0.0
 40
0.0
 40
0.0
 40
1.0
 40
1.0
 40
1.0
 40
1.0
 10
3.857566879650775
 20
2.759254833927961
 30
0.0
 10
3.850622404153268
 20
2.766199277846076
 30
0.0
 10
3.843677929199627
 20
2.773143722308065
 30
0.0
 10
3.83673345473722
 20
2.780088167261294
 30
0.0
  0
SPLINE
  5
347
330
1F
100
AcDbEntity
  8
0
  6
Continuous
 62
     7
370
     5
100
AcDbSpline
210
0.0
220
0.0
230
1.0
 70
     8
 71
     3
 72
     8
 73
     4
 74
     0
 42
0.0000000001
 43
0.0000000001
 40
0.0
 40
0.0
 40
0.0
 40
0.0
 40
1.0
 40
1.0
 40
1.0
 40
1.0
 10
3.83673345473722
 20
2.780088167261293
 30
0.0
 10
3.843677929199625
 20
2.787032612214521
 30
0.0
 10
3.850622404153266
 20
2.79397705667651
 30
0.0
 10
3.857566879650775
 20
2.800921500594627
 30
0.0
  0
SPLINE
  5
348
330
1F
100
AcDbEntity
  8
0
  6
Continuous
 62
     7
370
     5
100
AcDbSpline
210
0.0
220
0.0
230
1.0
 70
     8
 71
     3
 72
     8
 73
     4
 74
     0
 42
0.0000000001
 43
0.0000000001
 40
0.0
 40
0.0
 40
0.0
 40
0.0
 40
1.0
 40
1.0
 40
1.0
 40
1.0
 10
3.857566879650775
 20
2.800921500594627
 30
0.0
 10
3.850622404153268
 20
2.807865944512743
 30
0.0
 10
3.843677929199627
 20
2.814810388974732
 30
0.0
 10
3.83673345473722
 20
2.821754833927961
 30
0.0
  0
SPLINE
  5
349
330
1F
100
AcDbEntity
  8
0
  6
Continuous
 62
     7
370
     5
100
AcDbSpline
210
0.0
220
0.0
230
1.0
 70
     8
 71
     3
 72
     8
 73
     4
 74
     0
 42
0.0000000001
 43
0.0000000001
 40
0.0
 40
0.0
 40
0.0
 40
0.0
 40
1.0
 40
1.0
 40
1.0
 40
1.0
 10
3.83673345473722
 20
2.821754833927961
 30
0.0
 10
3.843677929199625
 20
2.828699278881188
 30
0.0
 10
3.850622404153266
 20
2.835643723343176
 30
0.0
 10
3.857566879650775
 20
2.842588167261294
 30
0.0
  0
SPLINE
  5
34A
330
1F
100
AcDbEntity
  8
0
  6
Continuous
 62
     7
370
     5
100
AcDbSpline
210
0.0
220
0.0
230
1.0
 70
     8
 71
     3
 72
     8
 73
     4
 74
     0
 42
0.0000000001
 43
0.0000000001
 40
0.0
 40
0.0
 40
0.0
 40
0.0
 40
1.0
 40
1.0
 40
1.0
 40
1.0
 10
3.857566879650775
 20
2.842588167261294
 30
0.0
 10
3.850622404153268
 20
2.84953261117941
 30
0.0
 10
3.843677929199627
 20
2.856477055641398
 30
0.0
 10
3.83673345473722
 20
2.863421500594628
 30
0.0
  0
SPLINE
  5
34B
330
1F
100
AcDbEntity
  8
0
  6
Continuous
 62
     7
370
     5
100
AcDbSpline
210
0.0
220
0.0
230
1.0
 70
     8
 71
     3
 72
     8
 73
     4
 74
     0
 42
0.0000000001
 43
0.0000000001
 40
0.0
 40
0.0
 40
0.0
 40
0.0
 40
1.0
 40
1.0
 40
1.0
 40
1.0
 10
3.83673345473722
 20
2.863421500594627
 30
0.0
 10
3.843677929199625
 20
2.870365945547854
 30
0.0
 10
3.850622404153266
 20
2.877310390009843
 30
0.0
 10
3.857566879650775
 20
2.884254833927961
 30
0.0
  0
SPLINE
  5
34C
330
1F
100
AcDbEntity
  8
0
  6
Continuous
 62
     7
370
     5
100
AcDbSpline
210
0.0
220
0.0
230
1.0
 70
     8
 71
     3
 72
     8
 73
     4
 74
     0
 42
0.0000000001
 43
0.0000000001
 40
0.0
 40
0.0
 40
0.0
 40
0.0
 40
1.0
 40
1.0
 40
1.0
 40
1.0
 10
3.857566879650775
 20
2.884254833927961
 30
0.0
 10
3.850622404153268
 20
2.891199277846076
 30
0.0
 10
3.843677929199627
 20
2.898143722308065
 30
0.0
 10
3.83673345473722
 20
2.905088167261294
 30
0.0
  0
LINE
  5
34D
330
1F
100
AcDbEntity
  8
0
  6
Continuous
 62
     7
370
     5
100
AcDbLine
 10
3.701314129987559
 20
3.386623885536169
 30
0.0
 11
3.701314129987559
 21
3.446754834700397
 31
0.0
  0
LINE
  5
34E
330
1F
100
AcDbEntity
  8
0
  6
Continuous
 62
     7
370
     5
100
AcDbLine
 10
3.701291348028516
 20
3.323147973172964
 30
0.0
 11
3.701291348028516
 21
3.311338167378627
 31
0.0
  0
LINE
  5
34F
330
1F
100
AcDbEntity
  8
0
  6
Continuous
 62
     7
370
     5
100
AcDbLine
 10
3.555503578847932
 20
3.311338167378627
 30
0.0
 11
3.555503578847932
 21
3.349065675158348
 31
0.0
  0
SPLINE
  5
350
330
1F
100
AcDbEntity
  8
0
  6
Continuous
 62
     7
370
     5
100
AcDbSpline
210
0.0
220
0.0
230
1.0
 70
     8
 71
     3
 72
     9
 73
     5
 74
     0
 42
0.0000000001
 43
0.0000000001
 40
0.0
 40
0.0
 40
0.0
 40
0.0
 40
0.4820490916691788
 40
0.9999999999999998
 40
0.9999999999999998
 40
0.9999999999999998
 40
0.9999999999999998
 10
5.222147467857729
 20
3.403361055572369
 30
0.0
 10
5.171839127328635
 20
3.396935704754071
 30
0.0
 10
5.067475606271282
 20
3.383606458979436
 30
0.0
 10
4.963110060591886
 20
3.37030895507318
 30
0.0
 10
4.909053831408801
 20
3.363421500846402
 30
0.0
  0
ELLIPSE
  5
351
330
1F
100
AcDbEntity
  8
0
  6
Continuous
 62
     7
370
     5
100
AcDbEllipse
 10
4.461730798922644
 20
4.514358761793895
 30
0.0
 11
-0.4872875836832491
 21
16.11111354339254
 31
0.0
210
0.0
220
0.0
230
1.0
 40
0.0174409416135018
 41
4.602707392372916
 42
4.640363105938922
  0
LINE
  5
352
330
1F
100
AcDbEntity
  8
0
  6
Continuous
 62
     7
370
     5
100
AcDbLine
 10
4.794374680636581
 20
2.759254813981525
 30
0.0
 11
5.024227829797833
 21
2.759254813981525
 31
0.0
  0
LINE
  5
353
330
1F
100
AcDbEntity
  8
0
  6
Continuous
 62
     7
370
     5
100
AcDbLine
 10
5.024227829797833
 20
3.363421500846402
 30
0.0
 11
4.777062225075989
 21
3.363421500846402
 31
0.0
  0
LINE
  5
354
330
1F
100
AcDbEntity
  8
0
  6
Continuous
 62
     7
370
     5
100
AcDbLine
 10
5.326678380307709
 20
3.446754834700397
 30
0.0
 11
5.326449485174147
 21
3.446754834700397
 31
0.0
  0
LINE
  5
355
330
1F
100
AcDbEntity
  8
0
  6
Continuous
 62
     7
370
     5
100
AcDbLine
 10
5.263692081264143
 20
3.446754834700397
 30
0.0
 11
5.263449937394743
 21
3.446754834700397
 31
0.0
  0
LINE
  5
356
330
1F
100
AcDbEntity
  8
0
  6
Continuous
 62
     7
370
     5
100
AcDbLine
 10
3.660011660450545
 20
3.446754834700397
 30
0.0
 11
3.659782814205307
 21
3.446754834700397
 31
0.0
  0
LINE
  5
357
330
1F
100
AcDbEntity
  8
0
  6
Continuous
 62
     7
370
     5
100
AcDbLine
 10
3.597025410295304
 20
3.446754834700397
 30
0.0
 11
3.59678321753758
 21
3.446754834700397
 31
0.0
  0
ELLIPSE
  5
358
330
1F
100
AcDbEntity
  8
0
  6
Continuous
 62
     7
370
     5
100
AcDbEllipse
 10
4.461730798922644
 20
4.514358761793895
 30
0.0
 11
0.4872875836832469
 21
16.11111354339253
 31
0.0
210
0.0
220
0.0
230
1.0
 40
0.017440941613502
 41
4.603762409890458
 42
4.641418123456464
  0
LINE
  5
359
330
1F
100
AcDbEntity
  8
0
  6
Continuous
 62
     7
370
     5
100
AcDbLine
 10
3.920932850711134
 20
2.759254813981525
 30
0.0
 11
4.68823925338876
 21
2.759254813981525
 31
0.0
  0
LINE
  5
35A
330
1F
100
AcDbEntity
  8
0
  6
Continuous
 62
     7
370
     5
100
AcDbLine
 10
4.707462240212065
 20
3.363421500846402
 30
0.0
 11
3.920932850711134
 21
3.363421500846402
 31
0.0
  0
SPLINE
  5
35B
330
1F
100
AcDbEntity
  8
0
  6
Continuous
 62
     7
370
     5
100
AcDbSpline
210
0.0
220
0.0
230
1.0
 70
     8
 71
     3
 72
    10
 73
     6
 74
     0
 42
0.0000000001
 43
0.0000000001
 40
0.0
 40
0.0
 40
0.0
 40
0.0
 40
0.320754161297139
 40
0.6415090437155266
 40
1.0
 40
1.0
 40
1.0
 40
1.0
 10
4.253397458940499
 20
3.415177154210678
 30
0.0
 10
4.194368098257689
 20
3.415683987604064
 30
0.0
 10
4.076309244181944
 20
3.416697655530302
 30
0.0
 10
3.892284463987451
 20
3.419055436569827
 30
0.0
 10
3.767285711595035
 20
3.420583631358457
 30
0.0
 10
3.701314129987559
 20
3.421390178826177
 30
0.0
  0
SPLINE
  5
35C
330
1F
100
AcDbEntity
  8
0
  6
Continuous
 62
     7
370
     5
100
AcDbSpline
210
0.0
220
0.0
230
1.0
 70
     8
 71
     3
 72
    20
 73
    16
 74
     0
 42
0.0000000001
 43
0.0000000001
 40
0.0
 40
0.0
 40
0.0
 40
0.0
 40
0.125
 40
0.125
 40
0.25
 40
0.25
 40
0.375
 40
0.375
 40
0.5
 40
0.5
 40
0.625
 40
0.625
 40
0.75
 40
0.75
 40
1.0
 40
1.0
 40
1.0
 40
1.0
 10
4.295064132255977
 20
3.407692542513217
 30
0.0
 10
4.295064132255977
 20
3.408164082961795
 30
0.0
 10
4.294798029152556
 20
3.408630309214212
 30
0.0
 10
4.293755006400918
 20
3.409551870072167
 30
0.0
 10
4.292966408127067
 20
3.410011773756773
 30
0.0
 10
4.290899388796351
 20
3.410895608223046
 30
0.0
 10
4.289633491537769
 20
3.411317096280601
 30
0.0
 10
4.28664051936118
 20
3.412119212725775
 30
0.0
 10
4.284893158157466
 20
3.412502507000517
 30
0.0
 10
4.281064865621603
 20
3.413195367687782
 30
0.0
 10
4.278974665977592
 20
3.413508797963214
 30
0.0
 10
4.274433992333799
 20
3.41406828482519
 30
0.0
 10
4.271994636375969
 20
3.414311552250723
 30
0.0
 10
4.264449316296786
 20
3.414906764177472
 30
0.0
 10
4.258944526024285
 20
3.415137495702008
 30
0.0
 10
4.253397465589311
 20
3.415177154417088
 30
0.0
  0
SPLINE
  5
35D
330
1F
100
AcDbEntity
  8
0
  6
Continuous
 62
     7
370
     5
100
AcDbSpline
210
0.0
220
0.0
230
1.0
 70
     8
 71
     3
 72
    22
 73
    18
 74
     0
 42
0.0000000001
 43
0.0000000001
 40
0.0
 40
0.0
 40
0.0
 40
0.0
 40
0.125
 40
0.125
 40
0.25
 40
0.25
 40
0.375
 40
0.375
 40
0.5
 40
0.5
 40
0.625
 40
0.625
 40
0.75
 40
0.75
 40
0.875
 40
0.875
 40
1.0
 40
1.0
 40
1.0
 40
1.0
 10
4.336730798922644
 20
3.387495334563314
 30
0.0
 10
4.333957539283811
 20
3.387532833496296
 30
0.0
 10
4.33123253029992
 20
3.387617961469238
 30
0.0
 10
4.325874719570013
 20
3.387878023886731
 30
0.0
 10
4.323213479027454
 20
3.388055720743796
 30
0.0
 10
4.318154053613731
 20
3.388490928563654
 30
0.0
 10
4.315756939576041
 20
3.388746895970095
 30
0.0
 10
4.311224678843004
 20
3.389333662081615
 30
0.0
 10
4.309087844843824
 20
3.389666367236729
 30
0.0
 10
4.305261785476851
 20
3.39037839705888
 30
0.0
 10
4.303545909711177
 20
3.39076070369412
 30
0.0
 10
4.300517669399016
 20
3.391579141017019
 30
0.0
 10
4.299241425262529
 20
3.392006306985306
 30
0.0
 10
4.297183215217702
 20
3.392883218089418
 30
0.0
 10
4.296390401798466
 20
3.393338398168729
 30
0.0
 10
4.295330475526825
 20
3.394261040901629
 30
0.0
 10
4.295064132255978
 20
3.394723991390225
 30
0.0
 10
4.295064132255977
 20
3.395189096630264
 30
0.0
  0
SPLINE
  5
35E
330
1F
100
AcDbEntity
  8
0
  6
Continuous
 62
     7
370
     5
100
AcDbSpline
210
0.0
220
0.0
230
1.0
 70
     8
 71
     3
 72
     9
 73
     5
 74
     0
 42
0.0000000001
 43
0.0000000001
 40
0.0
 40
0.0
 40
0.0
 40
0.0
 40
0.5
 40
1.0
 40
1.0
 40
1.0
 40
1.0
 10
4.336730798922644
 20
3.38749533456331
 30
0.0
 10
4.37839746558931
 20
3.386931934180948
 30
0.0
 10
4.461730798922644
 20
3.386315454586378
 30
0.0
 10
4.545064132255977
 20
3.386931934180948
 30
0.0
 10
4.586730798922644
 20
3.38749533456331
 30
0.0
  0
SPLINE
  5
35F
330
1F
100
AcDbEntity
  8
0
  6
Continuous
 62
     7
370
     5
100
AcDbSpline
210
0.0
220
0.0
230
1.0
 70
     8
 71
     3
 72
    20
 73
    16
 74
     0
 42
0.0000000001
 43
0.0000000001
 40
0.0
 40
0.0
 40
0.0
 40
0.0
 40
0.1250000000000001
 40
0.1250000000000001
 40
0.2500000000000002
 40
0.2500000000000002
 40
0.3750000000000003
 40
0.3750000000000003
 40
0.5000000000000005
 40
0.5000000000000005
 40
0.6250000000000006
 40
0.6250000000000006
 40
0.7500000000000007
 40
0.7500000000000007
 40
1.0
 40
1.0
 40
1.0
 40
1.0
 10
4.628397465589311
 20
3.395189096630265
 30
0.0
 10
4.628397465589311
 20
3.394723873768921
 30
0.0
 10
4.628131021622612
 20
3.394263246251306
 30
0.0
 10
4.627086924907397
 20
3.393349830780407
 30
0.0
 10
4.626297574365814
 20
3.392892475199566
 30
0.0
 10
4.62422916816939
 20
3.392009073839132
 30
0.0
 10
4.622962603198465
 20
3.391585492164942
 30
0.0
 10
4.619968736679386
 20
3.390773767911879
 30
0.0
 10
4.61822127094589
 20
3.390382848590683
 30
0.0
 10
4.614393337751367
 20
3.389669558753781
 30
0.0
 10
4.612303542228374
 20
3.389343324085424
 30
0.0
 10
4.607764174607225
 20
3.388753592936075
 30
0.0
 10
4.605325650092843
 20
3.388492929845613
 30
0.0
 10
4.597782595237993
 20
3.387842759473775
 30
0.0
 10
4.592278707937231
 20
3.387570351220753
 30
0.0
 10
4.586730798922644
 20
3.38749533456331
 30
0.0
  0
SPLINE
  5
360
330
1F
100
AcDbEntity
  8
0
  6
Continuous
 62
     7
370
     5
100
AcDbSpline
210
0.0
220
0.0
230
1.0
 70
     8
 71
     3
 72
    22
 73
    18
 74
     0
 42
0.0000000001
 43
0.0000000001
 40
0.0
 40
0.0
 40
0.0
 40
0.0
 40
0.125
 40
0.125
 40
0.25
 40
0.25
 40
0.375
 40
0.375
 40
0.5
 40
0.5
 40
0.625
 40
0.625
 40
0.75
 40
0.75
 40
0.875
 40
0.875
 40
1.0
 40
1.0
 40
1.0
 40
1.0
 10
4.670064132255977
 20
3.415177154417088
 30
0.0
 10
4.667291335758436
 20
3.41515733030528
 30
0.0
 10
4.664566367495172
 20
3.415091220706016
 30
0.0
 10
4.659207984084408
 20
3.414869714076219
 30
0.0
 10
4.65654605967076
 20
3.414711764535466
 30
0.0
 10
4.651485400402892
 20
3.414313452771589
 30
0.0
 10
4.649087575903633
 20
3.414074611535465
 30
0.0
 10
4.64455391356903
 20
3.413518084508651
 30
0.0
 10
4.642416608134773
 20
3.413198488195803
 30
0.0
 10
4.63859020790455
 20
3.412506918262041
 30
0.0
 10
4.636874358253939
 20
3.41213214028654
 30
0.0
 10
4.633846484384214
 20
3.411323341375118
 30
0.0
 10
4.632571292528717
 20
3.410898392075317
 30
0.0
 10
4.630514348620693
 20
3.410021051014562
 30
0.0
 10
4.629722062059953
 20
3.40956321248884
 30
0.0
 10
4.62866346616393
 20
3.408632511629622
 30
0.0
 10
4.628397465589311
 20
3.408163963004573
 30
0.0
 10
4.628397465589311
 20
3.407692542513217
 30
0.0
  0
SPLINE
  5
361
330
1F
100
AcDbEntity
  8
0
  6
Continuous
 62
     7
370
     5
100
AcDbSpline
210
0.0
220
0.0
230
1.0
 70
     8
 71
     3
 72
    11
 73
     7
 74
     0
 42
0.0000000001
 43
0.0000000001
 40
0.0
 40
0.0
 40
0.0
 40
0.0
 40
0.143987896413594
 40
0.5709972294375929
 40
0.7854981089830515
 40
1.0
 40
1.0
 40
1.0
 40
1.0
 10
5.222147467857729
 20
3.42141746156656
 30
0.0
 10
5.195649900401797
 20
3.421097822575713
 30
0.0
 10
5.090571362684202
 20
3.419830264796626
 30
0.0
 10
4.946020996002421
 20
3.417929544576249
 30
0.0
 10
4.788490702612572
 20
3.416142468657375
 30
0.0
 10
4.709539722189008
 20
3.415498926198676
 30
0.0
 10
4.670064138904789
 20
3.415177154210678
 30
0.0
  0
LINE
  5
362
330
1F
100
AcDbEntity
  8
0
  6
Continuous
 62
     7
370
     5
100
AcDbLine
 10
4.763359732257245
 20
3.363421500846402
 30
0.0
 11
4.781356819908908
 21
2.759254813981525
 31
0.0
  0
LINE
  5
363
330
1F
100
AcDbEntity
  8
0
  6
Continuous
 62
     7
370
     5
100
AcDbLine
 10
4.769968993684271
 20
2.759254813981525
 30
0.0
 11
4.751971906032608
 21
3.363421500846402
 31
0.0
  0
LINE
  5
364
330
1F
100
AcDbEntity
  8
0
  6
Continuous
 62
     7
370
     5
100
AcDbLine
 10
4.781356819908908
 20
2.759254813981525
 30
0.0
 11
4.769968993684271
 21
2.759254813981525
 31
0.0
  0
LINE
  5
365
330
1F
100
AcDbEntity
  8
0
  6
Continuous
 62
     7
370
     5
100
AcDbLine
 10
4.751971906032608
 20
3.363421500846402
 30
0.0
 11
4.763359732257245
 21
3.363421500846402
 31
0.0
  0
LINE
  5
366
330
1F
100
AcDbEntity
  8
0
  6
Continuous
 62
     7
370
     5
100
AcDbLine
 10
4.712287615580028
 20
3.363421500846402
 30
0.0
 11
4.694290527928365
 21
2.759254813981525
 31
0.0
  0
LINE
  5
367
330
1F
100
AcDbEntity
  8
0
  6
Continuous
 62
     7
370
     5
100
AcDbLine
 10
4.769968993684271
 20
2.759254813981525
 30
0.0
 11
4.694290527928365
 21
2.759254813981525
 31
0.0
  0
LINE
  5
368
330
1F
100
AcDbEntity
  8
0
  6
Continuous
 62
     7
370
     5
100
AcDbLine
 10
4.751971906032608
 20
3.363421500846402
 30
0.0
 11
4.712287615580028
 21
3.363421500846402
 31
0.0
  0
ELLIPSE
  5
369
330
1F
100
AcDbEntity
  8
0
  6
Continuous
 62
     7
370
     5
100
AcDbEllipse
 10
4.45451818599733
 20
4.514072293359485
 30
0.0
 11
-0.4800642160801645
 21
16.11111367322853
 31
0.0
210
0.0
220
0.0
230
1.0
 40
0.0171830191585789
 41
4.602740784532736
 42
4.640396437195693
  0
LINE
  5
36A
330
1F
100
AcDbEntity
  8
0
  6
Continuous
 62
     7
370
     5
100
AcDbLine
 10
4.782226029867721
 20
2.759254813981525
 30
0.0
 11
4.781356819908908
 21
2.759254813981525
 31
0.0
  0
LINE
  5
36B
330
1F
100
AcDbEntity
  8
0
  6
Continuous
 62
     7
370
     5
100
AcDbLine
 10
4.765169846902201
 20
3.363421500846402
 30
0.0
 11
4.763359732257245
 21
3.363421500846402
 31
0.0
  0
SPLINE
  5
36C
330
1F
100
AcDbEntity
  8
0
  6
Continuous
 62
     7
370
     5
100
AcDbSpline
210
0.0
220
0.0
230
1.0
 70
    24
 71
     3
 72
    14
 73
    10
 74
     0
 42
0.0000000001
 43
0.0000000001
 40
0.0
 40
0.0
 40
0.0
 40
0.0
 40
0.25
 40
0.25
 40
0.5
 40
0.5
 40
0.75
 40
0.75
 40
1.0
 40
1.0
 40
1.0
 40
1.0
 10
4.79437468312529
 20
2.759254833927961
 30
0.0
 10
4.793424733730676
 20
2.759254833927961
 30
0.0
 10
4.792342905036826
 20
2.759254833927961
 30
0.0
 10
4.790064300674771
 20
2.759254833927961
 30
0.0
 10
4.788867718602435
 20
2.759254833927961
 30
0.0
 10
4.786594566389937
 20
2.759254833927961
 30
0.0
 10
4.785499467490819
 20
2.759254833927961
 30
0.0
 10
4.783612202365461
 20
2.759254833927961
 30
0.0
 10
4.782815033632162
 20
2.759254833927961
 30
0.0
 10
4.782226019132172
 20
2.759254833927961
 30
0.0
  0
SPLINE
  5
36D
330
1F
100
AcDbEntity
  8
0
  6
Continuous
 62
     7
370
     5
100
AcDbSpline
210
0.0
220
0.0
230
1.0
 70
    24
 71
     3
 72
    12
 73
     8
 74
     0
 42
0.0000000001
 43
0.0000000001
 40
0.0
 40
0.0
 40
0.0
 40
0.0
 40
0.2500000000000011
 40
0.2500000000000011
 40
0.5000000000000023
 40
0.5000000000000023
 40
1.0
 40
1.0
 40
1.0
 40
1.0
 10
4.76516985333369
 20
3.363421500594628
 30
0.0
 10
4.76574547493097
 20
3.363421500594628
 30
0.0
 10
4.766517570992068
 20
3.363421500594628
 30
0.0
 10
4.768351643636844
 20
3.363421500594628
 30
0.0
 10
4.769413052617582
 20
3.363421500594628
 30
0.0
 10
4.772732146510288
 20
3.363421500594628
 30
0.0
 10
4.775155580223281
 20
3.363421500594628
 30
0.0
 10
4.777062223508421
 20
3.363421500594628
 30
0.0
  0
LINE
  5
36E
330
1F
100
AcDbEntity
  8
0
  6
Continuous
 62
     7
370
     5
100
AcDbLine
 10
4.694290527928365
 20
2.759254813981525
 30
0.0
 11
4.690120182771215
 21
2.759254813981525
 31
0.0
  0
LINE
  5
36F
330
1F
100
AcDbEntity
  8
0
  6
Continuous
 62
     7
370
     5
100
AcDbLine
 10
4.708117270422878
 20
3.363421500846402
 30
0.0
 11
4.712287615580028
 21
3.363421500846402
 31
0.0
  0
SPLINE
  5
370
330
1F
100
AcDbEntity
  8
0
  6
Continuous
 62
     7
370
     5
100
AcDbSpline
210
0.0
220
0.0
230
1.0
 70
    24
 71
     1
 72
     4
 73
     2
 74
     0
 42
0.0000000001
 43
0.0000000001
 40
0.0
 40
0.0
 40
1.0
 40
1.0
 10
4.689940909286642
 20
2.759254813981525
 30
0.0
 10
4.68823925338876
 20
2.759254813981525
 30
0.0
  0
SPLINE
  5
371
330
1F
100
AcDbEntity
  8
0
  6
Continuous
 62
     7
370
     5
100
AcDbSpline
210
0.0
220
0.0
230
1.0
 70
    24
 71
     1
 72
     4
 73
     2
 74
     0
 42
0.0000000001
 43
0.0000000001
 40
0.0
 40
0.0
 40
1.0
 40
1.0
 10
4.707462240212065
 20
3.363421500846402
 30
0.0
 10
4.70794066135197
 20
3.363421500846402
 30
0.0
  0
LINE
  5
372
330
1F
100
AcDbEntity
  8
0
  6
Continuous
 62
     7
370
     5
100
AcDbLine
 10
4.586730800467515
 20
3.38749533461842
 30
0.0
 11
4.586730800467515
 21
3.446754834700397
 31
0.0
  0
LINE
  5
373
330
1F
100
AcDbEntity
  8
0
  6
Continuous
 62
     7
370
     5
100
AcDbLine
 10
4.628397463575112
 20
3.446754834700397
 30
0.0
 11
4.628397463575112
 21
3.395189096433872
 31
0.0
  0
LINE
  5
374
330
1F
100
AcDbEntity
  8
0
  6
Continuous
 62
     7
370
     5
100
AcDbLine
 10
4.336730797377772
 20
3.446754834700397
 30
0.0
 11
4.336730797377772
 21
3.38749533461842
 31
0.0
  0
LINE
  5
375
330
1F
100
AcDbEntity
  8
0
  6
Continuous
 62
     7
370
     5
100
AcDbLine
 10
4.295064134270177
 20
3.395189096433872
 30
0.0
 11
4.295064134270177
 21
3.446754834700397
 31
0.0
  0
LINE
  5
376
330
1F
100
AcDbEntity
  8
0
  6
Continuous
 62
     7
370
     5
100
AcDbLine
 10
4.253397458940499
 20
3.415177154210678
 30
0.0
 11
4.253397458940499
 21
3.446754834700397
 31
0.0
  0
LINE
  5
377
330
1F
100
AcDbEntity
  8
0
  6
Continuous
 62
     7
370
     5
100
AcDbLine
 10
4.670064138904789
 20
3.446754834700397
 30
0.0
 11
4.670064138904789
 21
3.415177154210678
 31
0.0
  0
LINE
  5
378
330
1F
100
AcDbEntity
  8
0
  6
Continuous
 62
     7
370
     5
100
AcDbLine
 10
3.741079550614027
 20
3.446754834700397
 30
0.0
 11
3.783438643500393
 21
3.446754834700397
 31
0.0
  0
LINE
  5
379
330
1F
100
AcDbEntity
  8
0
  6
Continuous
 62
     7
370
     5
100
AcDbLine
 10
5.140022954344894
 20
3.446754834700397
 30
0.0
 11
5.182382047231262
 21
3.446754834700397
 31
0.0
  0
LINE
  5
37A
330
1F
100
AcDbEntity
  8
0
  6
Continuous
 62
     7
370
     5
100
AcDbLine
 10
5.503397449945047
 20
3.467588166254195
 30
0.0
 11
5.472147446503309
 21
3.467588166254195
 31
0.0
  0
LINE
  5
37B
330
1F
100
AcDbEntity
  8
0
  6
Continuous
 62
     7
370
     5
100
AcDbLine
 10
3.451314151341979
 20
3.467588166254195
 30
0.0
 11
3.420064147900241
 21
3.467588166254195
 31
0.0
  0
LINE
  5
37C
330
1F
100
AcDbEntity
  8
0
  6
Continuous
 62
     7
370
     5
100
AcDbLine
 10
3.586730800330628
 20
3.457171500477295
 30
0.0
 11
3.586730800330628
 21
3.458735095747843
 31
0.0
  0
LINE
  5
37D
330
1F
100
AcDbEntity
  8
0
  6
Continuous
 62
     7
370
     5
100
AcDbLine
 10
3.586730800330628
 20
3.481088169745447
 30
0.0
 11
3.586730800330628
 21
3.488421503919034
 31
0.0
  0
LINE
  5
37E
330
1F
100
AcDbEntity
  8
0
  6
Continuous
 62
     7
370
     5
100
AcDbLine
 10
5.33673079751466
 20
3.457171500477295
 30
0.0
 11
5.33673079751466
 21
3.458735095747843
 31
0.0
  0
LINE
  5
37F
330
1F
100
AcDbEntity
  8
0
  6
Continuous
 62
     7
370
     5
100
AcDbLine
 10
5.33673079751466
 20
3.481088169745447
 30
0.0
 11
5.33673079751466
 21
3.488421503919034
 31
0.0
  0
LINE
  5
380
330
1F
100
AcDbEntity
  8
0
  6
Continuous
 62
     7
370
     5
100
AcDbLine
 10
3.740252506834774
 20
3.446754834700397
 30
0.0
 11
3.740252506834774
 21
3.471857027495501
 31
0.0
  0
LINE
  5
381
330
1F
100
AcDbEntity
  8
0
  6
Continuous
 62
     7
370
     5
100
AcDbLine
 10
5.183209091010515
 20
3.471857027495501
 30
0.0
 11
5.183209091010515
 21
3.446754834700397
 31
0.0
  0
LINE
  5
382
330
1F
100
AcDbEntity
  8
0
  6
Continuous
 62
     7
370
     5
100
AcDbLine
 10
5.142038473283671
 20
3.446754834700397
 30
0.0
 11
5.142038473283671
 21
3.448087157642622
 31
0.0
  0
LINE
  5
383
330
1F
100
AcDbEntity
  8
0
  6
Continuous
 62
     7
370
     5
100
AcDbLine
 10
3.781423124561618
 20
3.448087157642622
 30
0.0
 11
3.781423124561618
 21
3.446754834700397
 31
0.0
  0
HATCH
  5
384
330
1F
100
AcDbEntity
  8
0
  6
Continuous
 62
     7
370
     5
100
AcDbHatch
 10
0.0
 20
0.0
 30
0.0
210
0.0
220
0.0
230
1.0
  2
ANSI31
 70
     0
 71
     0
 91
        1
 92
        0
 93
        7
 72
     1
 10
3.513814132255978
 20
3.488421500594628
 11
3.513814132255978
 21
3.550921500594628
 72
     1
 10
3.513814132255978
 20
3.550921500594628
 11
3.451314132255977
 21
3.550921500594628
 72
     1
 10
3.451314132255977
 20
3.550921500594628
 11
3.451314132255977
 21
3.446754833927961
 72
     1
 10
3.451314132255977
 20
3.446754833927961
 11
3.545103988452169
 21
3.446754833927961
 72
     1
 10
3.545103988452169
 20
3.446754833927961
 11
3.545103988452169
 21
3.457171500594628
 72
     4
 94
        3
 73
     1
 74
     0
 95
        8
 96
        4
 40
0.0
 40
0.0
 40
0.0
 40
0.0
 40
0.0031092556195209
 40
0.0031092556195209
 40
0.0031092556195209
 40
0.0031092556195209
 10
3.545103988452169
 20
3.457171500594628
 42
1.0
 10
3.536356336412244
 20
3.467586574275927
 42
1.0
 10
3.52761131432351
 20
3.478003856744424
 42
1.0
 10
3.518866723274822
 20
3.488421500594628
 42
1.0
 72
     1
 10
3.518866723274822
 20
3.488421500594628
 11
3.513814132255978
 21
3.488421500594628
 97
        0
 75
     0
 76
     1
 52
90.00000000000019
 41
0.2
 77
     0
 78
     1
 53
135.0000000000002
 43
0.0
 44
0.0
 45
-0.0176776695296636
 46
-0.0176776695296638
 79
     0
 98
        1
 10
0.0
 20
0.0
  0
HATCH
  5
385
330
1F
100
AcDbEntity
  8
0
  6
Continuous
 62
     7
370
     5
100
AcDbHatch
 10
0.0
 20
0.0
 30
0.0
210
0.0
220
0.0
230
1.0
  2
ANSI31
 70
     0
 71
     0
 91
        1
 92
        0
 93
        7
 72
     1
 10
5.47214746558931
 20
3.446754833927961
 11
5.47214746558931
 21
3.550921500594628
 72
     1
 10
5.47214746558931
 20
3.550921500594628
 11
5.409647465589311
 21
3.550921500594628
 72
     1
 10
5.409647465589311
 20
3.550921500594628
 11
5.409647465589311
 21
3.488421500594628
 72
     1
 10
5.409647465589311
 20
3.488421500594628
 11
5.404594874570466
 21
3.488421500594628
 72
     4
 94
        3
 73
     1
 74
     0
 95
        8
 96
        4
 40
0.0
 40
0.0
 40
0.0
 40
0.0
 40
0.0031092556195209
 40
0.0031092556195209
 40
0.0031092556195209
 40
0.0031092556195209
 10
5.404594874570466
 20
3.488421500594628
 42
1.0
 10
5.395850283521778
 20
3.478003856744424
 42
1.0
 10
5.387105261433044
 20
3.467586574275927
 42
1.0
 10
5.378357609393121
 20
3.457171500594628
 42
1.0
 72
     1
 10
5.378357609393121
 20
3.457171500594628
 11
5.378357609393121
 21
3.446754833927961
 72
     1
 10
5.378357609393121
 20
3.446754833927961
 11
5.47214746558931
 21
3.446754833927961
 97
        0
 75
     0
 76
     1
 52
90.00000000000019
 41
0.2
 77
     0
 78
     1
 53
135.0000000000002
 43
0.0
 44
0.0
 45
-0.0176776695296636
 46
-0.0176776695296638
 79
     0
 98
        1
 10
0.0
 20
0.0
  0
HATCH
  5
386
330
1F
100
AcDbEntity
  8
0
  6
Continuous
 62
     7
370
     5
100
AcDbHatch
 10
0.0
 20
0.0
 30
0.0
210
0.0
220
0.0
230
1.0
  2
ANSI31
 70
     0
 71
     0
 91
        1
 92
        0
 93
       44
 72
     4
 94
        3
 73
     1
 74
     0
 95
        8
 96
        4
 40
0.0
 40
0.0
 40
0.0
 40
0.0
 40
0.0022450689647558
 40
0.0022450689647558
 40
0.0022450689647558
 40
0.0022450689647558
 10
5.065894718194512
 20
2.884254833927961
 42
1.0
 10
5.072839193692022
 20
2.891199277846079
 42
1.0
 10
5.079783668645664
 20
2.898143722308067
 42
1.0
 10
5.086728143108069
 20
2.905088167261294
 42
1.0
 72
     4
 94
        3
 73
     1
 74
     0
 95
        8
 96
        4
 40
0.0
 40
0.0
 40
0.0
 40
0.0
 40
0.0022450689647558
 40
0.0022450689647558
 40
0.0022450689647558
 40
0.0022450689647558
 10
5.086728143108069
 20
2.905088167261294
 42
1.0
 10
5.079783668645664
 20
2.912032612214521
 42
1.0
 10
5.072839193692022
 20
2.91897705667651
 42
1.0
 10
5.065894718194512
 20
2.925921500594627
 42
1.0
 72
     4
 94
        3
 73
     1
 74
     0
 95
        8
 96
        4
 40
0.0
 40
0.0
 40
0.0
 40
0.0
 40
0.0022450689647558
 40
0.0022450689647558
 40
0.0022450689647558
 40
0.0022450689647558
 10
5.065894718194512
 20
2.925921500594628
 42
1.0
 10
5.072839193692022
 20
2.932865944512745
 42
1.0
 10
5.079783668645664
 20
2.939810388974734
 42
1.0
 10
5.086728143108069
 20
2.946754833927961
 42
1.0
 72
     4
 94
        3
 73
     1
 74
     0
 95
        8
 96
        4
 40
0.0
 40
0.0
 40
0.0
 40
0.0
 40
0.0022450689647558
 40
0.0022450689647558
 40
0.0022450689647558
 40
0.0022450689647558
 10
5.086728143108069
 20
2.946754833927961
 42
1.0
 10
5.079783668645664
 20
2.953699278881188
 42
1.0
 10
5.072839193692022
 20
2.960643723343176
 42
1.0
 10
5.065894718194512
 20
2.967588167261294
 42
1.0
 72
     4
 94
        3
 73
     1
 74
     0
 95
        8
 96
        4
 40
0.0
 40
0.0
 40
0.0
 40
0.0
 40
0.0022450689647558
 40
0.0022450689647558
 40
0.0022450689647558
 40
0.0022450689647558
 10
5.065894718194512
 20
2.967588167261294
 42
1.0
 10
5.072839193692022
 20
2.974532611179412
 42
1.0
 10
5.079783668645664
 20
2.981477055641401
 42
1.0
 10
5.086728143108069
 20
2.988421500594627
 42
1.0
 72
     4
 94
        3
 73
     1
 74
     0
 95
        8
 96
        4
 40
0.0
 40
0.0
 40
0.0
 40
0.0
 40
0.0022450689647558
 40
0.0022450689647558
 40
0.0022450689647558
 40
0.0022450689647558
 10
5.086728143108069
 20
2.988421500594627
 42
1.0
 10
5.079783668645664
 20
2.995365945547854
 42
1.0
 10
5.072839193692022
 20
3.002310390009843
 42
1.0
 10
5.065894718194512
 20
3.009254833927961
 42
1.0
 72
     4
 94
        3
 73
     1
 74
     0
 95
        8
 96
        4
 40
0.0
 40
0.0
 40
0.0
 40
0.0
 40
0.0022450689647558
 40
0.0022450689647558
 40
0.0022450689647558
 40
0.0022450689647558
 10
5.065894718194512
 20
3.009254833927961
 42
1.0
 10
5.072839193692022
 20
3.016199277846079
 42
1.0
 10
5.079783668645664
 20
3.023143722308067
 42
1.0
 10
5.086728143108069
 20
3.030088167261294
 42
1.0
 72
     4
 94
        3
 73
     1
 74
     0
 95
        8
 96
        4
 40
0.0
 40
0.0
 40
0.0
 40
0.0
 40
0.0022450689647558
 40
0.0022450689647558
 40
0.0022450689647558
 40
0.0022450689647558
 10
5.086728143108069
 20
3.030088167261294
 42
1.0
 10
5.079783668645664
 20
3.037032612214521
 42
1.0
 10
5.072839193692022
 20
3.04397705667651
 42
1.0
 10
5.065894718194512
 20
3.050921500594628
 42
1.0
 72
     4
 94
        3
 73
     1
 74
     0
 95
        8
 96
        4
 40
0.0
 40
0.0
 40
0.0
 40
0.0
 40
0.0022450689647558
 40
0.0022450689647558
 40
0.0022450689647558
 40
0.0022450689647558
 10
5.065894718194512
 20
3.050921500594628
 42
1.0
 10
5.072839193692022
 20
3.057865944512745
 42
1.0
 10
5.079783668645664
 20
3.064810388974734
 42
1.0
 10
5.086728143108069
 20
3.071754833927961
 42
1.0
 72
     4
 94
        3
 73
     1
 74
     0
 95
        8
 96
        4
 40
0.0
 40
0.0
 40
0.0
 40
0.0
 40
0.0022450689647558
 40
0.0022450689647558
 40
0.0022450689647558
 40
0.0022450689647558
 10
5.086728143108069
 20
3.071754833927961
 42
1.0
 10
5.079783668645664
 20
3.078699278881188
 42
1.0
 10
5.072839193692022
 20
3.085643723343176
 42
1.0
 10
5.065894718194512
 20
3.092588167261294
 42
1.0
 72
     4
 94
        3
 73
     1
 74
     0
 95
        8
 96
        4
 40
0.0
 40
0.0
 40
0.0
 40
0.0
 40
0.0022450689647558
 40
0.0022450689647558
 40
0.0022450689647558
 40
0.0022450689647558
 10
5.065894718194512
 20
3.092588167261294
 42
1.0
 10
5.072839193692022
 20
3.099532611179412
 42
1.0
 10
5.079783668645664
 20
3.106477055641401
 42
1.0
 10
5.086728143108069
 20
3.113421500594627
 42
1.0
 72
     4
 94
        3
 73
     1
 74
     0
 95
        8
 96
        4
 40
0.0
 40
0.0
 40
0.0
 40
0.0
 40
0.0022450689647558
 40
0.0022450689647558
 40
0.0022450689647558
 40
0.0022450689647558
 10
5.086728143108069
 20
3.113421500594627
 42
1.0
 10
5.079783668645664
 20
3.120365945547854
 42
1.0
 10
5.072839193692022
 20
3.127310390009843
 42
1.0
 10
5.065894718194512
 20
3.134254833927961
 42
1.0
 72
     4
 94
        3
 73
     1
 74
     0
 95
        8
 96
        4
 40
0.0
 40
0.0
 40
0.0
 40
0.0
 40
0.0022450689647558
 40
0.0022450689647558
 40
0.0022450689647558
 40
0.0022450689647558
 10
5.065894718194512
 20
3.134254833927961
 42
1.0
 10
5.072839193692022
 20
3.141199277846078
 42
1.0
 10
5.079783668645664
 20
3.148143722308067
 42
1.0
 10
5.086728143108069
 20
3.155088167261294
 42
1.0
 72
     4
 94
        3
 73
     1
 74
     0
 95
        8
 96
        4
 40
0.0
 40
0.0
 40
0.0
 40
0.0
 40
0.0012869258102413
 40
0.0012869258102413
 40
0.0012869258102413
 40
0.0012869258102413
 10
5.086728143108069
 20
3.155088167261294
 42
1.0
 10
5.082747408634193
 20
3.159068884819821
 42
1.0
 10
5.078766673998775
 20
3.163049602216803
 42
1.0
 10
5.074785939192184
 20
3.167030319442614
 42
1.0
 72
     4
 94
        3
 73
     1
 74
     0
 95
       26
 96
       22
 40
0.0
 40
0.0
 40
0.0
 40
0.0
 40
0.0001311499165003
 40
0.0001311499165003
 40
0.0001311499165003
 40
0.0002644692794994
 40
0.0002644692794994
 40
0.0002644692794994
 40
0.0003977889124545
 40
0.0003977889124545
 40
0.0003977889124545
 40
0.0005311090816867
 40
0.0005311090816867
 40
0.0005311090816867
 40
0.0006644298137488
 40
0.0006644298137488
 40
0.0006644298137488
 40
0.0007977508018519
 40
0.0007977508018519
 40
0.0007977508018519
 40
0.000931071773912
 40
0.000931071773912
 40
0.000931071773912
 40
0.000931071773912
 10
5.074785939192184
 20
3.167030319442614
 42
1.0
 10
5.074380264651089
 20
3.167435992192063
 42
1.0
 10
5.074038038530233
 20
3.167915958837228
 42
1.0
 10
5.07378672872359
 20
3.168431696749372
 42
1.0
 10
5.073531378077158
 20
3.168955727271756
 42
1.0
 10
5.073362980422006
 20
3.169531071067177
 42
1.0
 10
5.073295481031832
 20
3.170110083824678
 42
1.0
 10
5.073227981510125
 20
3.170689097710453
 42
1.0
 10
5.073259518948739
 20
3.17128775049935
 42
1.0
 10
5.073387481664411
 20
3.17185646730827
 42
1.0
 10
5.073515444884876
 20
3.172425186360681
 42
1.0
 10
5.073743363548743
 20
3.172979655271349
 42
1.0
 10
5.074052363189792
 20
3.173473957980423
 42
1.0
 10
5.074361364121592
 20
3.173968262754295
 42
1.0
 10
5.074759969396328
 20
3.174416034503123
 42
1.0
 10
5.075215169749698
 20
3.174780193017536
 42
1.0
 10
5.075670370989064
 20
3.175144352240742
 42
1.0
 10
5.076194722609573
 20
3.175434941972098
 42
1.0
 10
5.07674480248037
 20
3.175627898557653
 42
1.0
 10
5.077294882314425
 20
3.17582085513032
 42
1.0
 10
5.077885862304817
 20
3.175921500594628
 42
1.0
 10
5.078468803178981
 20
3.175921500594628
 42
1.0
 72
     1
 10
5.078468803178981
 20
3.175921500594628
 11
5.081519787456869
 21
3.175921500594628
 72
     4
 94
        3
 73
     1
 74
     0
 95
       20
 96
       16
 40
0.0
 40
0.0
 40
0.0
 40
0.0
 40
0.0001332602615069
 40
0.0001332602615069
 40
0.0001332602615069
 40
0.0002665205394576
 40
0.0002665205394576
 40
0.0002665205394576
 40
0.0003997805568644
 40
0.0003997805568644
 40
0.0003997805568644
 40
0.0005330400246016
 40
0.0005330400246016
 40
0.0005330400246016
 40
0.0006199833053997
 40
0.0006199833053997
 40
0.0006199833053997
 40
0.0006199833053997
 10
5.081519787456869
 20
3.175921500594628
 42
1.0
 10
5.082102728233365
 20
3.175921500594628
 42
1.0
 10
5.082693708125377
 20
3.176022146034651
 42
1.0
 10
5.083243787868496
 20
3.176215102571498
 42
1.0
 10
5.083793867649494
 20
3.176408059121633
 42
1.0
 10
5.084318219183798
 20
3.176698648805916
 42
1.0
 10
5.084773420346504
 20
3.177062807970532
 42
1.0
 10
5.085228620608764
 20
3.177426966414796
 42
1.0
 10
5.085627225802878
 20
3.177874738072523
 42
1.0
 10
5.085936226689201
 20
3.178369042739243
 42
1.0
 10
5.086245226314889
 20
3.178863345389341
 42
1.0
 10
5.086473144980475
 20
3.179417814228235
 42
1.0
 10
5.08660110824042
 20
3.179986533212157
 42
1.0
 10
5.086685280146015
 20
3.180360626218586
 42
1.0
 10
5.086728143108069
 20
3.180746388381435
 42
1.0
 10
5.086728143108069
 20
3.181129833927961
 42
1.0
 72
     1
 10
5.086728143108069
 20
3.181129833927961
 11
5.086728143108069
 21
3.300921500594627
 72
     1
 10
5.086728143108069
 20
3.300921500594627
 11
5.09714485331286
 21
3.300921500594627
 72
     4
 94
        3
 73
     1
 74
     0
 95
        8
 96
        4
 40
0.0
 40
0.0
 40
0.0
 40
0.0
 40
0.0096763084629627
 40
0.0096763084629627
 40
0.0096763084629627
 40
0.0096763084629627
 10
5.09714485331286
 20
3.300921500594627
 42
1.0
 10
5.138819987711322
 20
3.308330281452767
 42
1.0
 10
5.180495111997307
 20
3.315739119194577
 42
1.0
 10
5.222170233220381
 20
3.323147974165209
 42
1.0
 72
     1
 10
5.222170233220383
 20
3.323147974165209
 11
5.222170233220381
 21
3.311338167261294
 72
     2
 10
5.295064132255977
 20
3.311338167261294
 40
0.0728938990355956
 50
180.0
 51
360.0000000000008
 73
     1
 72
     1
 10
5.367958031291573
 20
3.311338167261294
 11
5.367958031291573
 21
3.349065674601955
 72
     4
 94
        3
 73
     1
 74
     0
 95
        8
 96
        4
 40
0.0
 40
0.0
 40
0.0
 40
0.0
 40
0.0153194782554186
 40
0.0153194782554186
 40
0.0153194782554186
 40
0.0153194782554186
 10
5.367958031291573
 20
3.349065674601955
 42
1.0
 10
5.433937845117147
 20
3.360795380916661
 42
1.0
 10
5.499917655815018
 20
3.37252510482475
 42
1.0
 10
5.565897465589312
 20
3.384254833927961
 42
1.0
 72
     1
 10
5.565897465589312
 20
3.384254833927961
 11
6.815897465589309
 21
3.384254833927961
 72
     1
 10
6.815897465589309
 20
3.384254833927961
 11
6.815897465589309
 21
3.467588167261294
 72
     1
 10
6.815897465589309
 20
3.467588167261294
 11
5.503397465589311
 21
3.467588167261294
 72
     1
 10
5.503397465589311
 20
3.467588167261294
 11
5.503397465589311
 21
3.446754833927961
 72
     1
 10
5.503397465589311
 20
3.446754833927961
 11
5.326678338186408
 21
3.446754833927961
 72
     1
 10
5.326678338186408
 20
3.446754833927961
 11
5.326678338186408
 21
3.321754833927961
 72
     1
 10
5.326678338186408
 20
3.321754833927961
 11
5.263449926325548
 21
3.321754833927961
 72
     1
 10
5.263449926325548
 20
3.321754833927961
 11
5.263449926325548
 21
3.446754833927961
 72
     1
 10
5.263449926325548
 20
3.446754833927961
 11
5.22214746558931
 21
3.446754833927961
 72
     1
 10
5.22214746558931
 20
3.446754833927961
 11
5.22214746558931
 21
3.386623885448281
 72
     4
 94
        3
 73
     1
 74
     0
 95
        8
 96
        4
 40
0.0
 40
0.0
 40
0.0
 40
0.0
 40
0.0101011686382424
 40
0.0101011686382424
 40
0.0101011686382424
 40
0.0101011686382424
 10
5.22214746558931
 20
3.386623885448281
 42
1.0
 10
5.178642504572676
 20
3.378889725046099
 42
1.0
 10
5.135137540501594
 20
3.371155581825074
 42
1.0
 10
5.091632565410158
 20
3.363421500594628
 42
1.0
 72
     1
 10
5.091632565410158
 20
3.363421500594628
 11
5.024227848016089
 21
3.363421500594628
 72
     1
 10
5.024227848016089
 20
3.363421500594628
 11
5.024227848016089
 21
2.759254833927961
 72
     1
 10
5.024227848016089
 20
2.759254833927961
 11
5.065894718194512
 21
2.759254833927961
 72
     4
 94
        3
 73
     1
 74
     0
 95
        8
 96
        4
 40
0.0
 40
0.0
 40
0.0
 40
0.0
 40
0.0022450689647558
 40
0.0022450689647558
 40
0.0022450689647558
 40
0.0022450689647558
 10
5.065894718194512
 20
2.759254833927961
 42
1.0
 10
5.072839193692022
 20
2.766199277846079
 42
1.0
 10
5.079783668645664
 20
2.773143722308067
 42
1.0
 10
5.086728143108069
 20
2.780088167261294
 42
1.0
 72
     4
 94
        3
 73
     1
 74
     0
 95
        8
 96
        4
 40
0.0
 40
0.0
 40
0.0
 40
0.0
 40
0.0022450689647558
 40
0.0022450689647558
 40
0.0022450689647558
 40
0.0022450689647558
 10
5.086728143108069
 20
2.780088167261294
 42
1.0
 10
5.079783668645664
 20
2.787032612214521
 42
1.0
 10
5.072839193692022
 20
2.79397705667651
 42
1.0
 10
5.065894718194512
 20
2.800921500594627
 42
1.0
 72
     4
 94
        3
 73
     1
 74
     0
 95
        8
 96
        4
 40
0.0
 40
0.0
 40
0.0
 40
0.0
 40
0.0022450689647558
 40
0.0022450689647558
 40
0.0022450689647558
 40
0.0022450689647558
 10
5.065894718194512
 20
2.800921500594627
 42
1.0
 10
5.072839193692022
 20
2.807865944512745
 42
1.0
 10
5.079783668645664
 20
2.814810388974734
 42
1.0
 10
5.086728143108069
 20
2.821754833927961
 42
1.0
 72
     4
 94
        3
 73
     1
 74
     0
 95
        8
 96
        4
 40
0.0
 40
0.0
 40
0.0
 40
0.0
 40
0.0022450689647558
 40
0.0022450689647558
 40
0.0022450689647558
 40
0.0022450689647558
 10
5.086728143108069
 20
2.821754833927961
 42
1.0
 10
5.079783668645664
 20
2.828699278881188
 42
1.0
 10
5.072839193692022
 20
2.835643723343176
 42
1.0
 10
5.065894718194512
 20
2.842588167261294
 42
1.0
 72
     4
 94
        3
 73
     1
 74
     0
 95
        8
 96
        4
 40
0.0
 40
0.0
 40
0.0
 40
0.0
 40
0.0022450689647558
 40
0.0022450689647558
 40
0.0022450689647558
 40
0.0022450689647558
 10
5.065894718194512
 20
2.842588167261294
 42
1.0
 10
5.072839193692022
 20
2.849532611179412
 42
1.0
 10
5.079783668645664
 20
2.856477055641401
 42
1.0
 10
5.086728143108069
 20
2.863421500594628
 42
1.0
 72
     4
 94
        3
 73
     1
 74
     0
 95
        8
 96
        4
 40
0.0
 40
0.0
 40
0.0
 40
0.0
 40
0.0022450689647558
 40
0.0022450689647558
 40
0.0022450689647558
 40
0.0022450689647558
 10
5.086728143108069
 20
2.863421500594628
 42
1.0
 10
5.079783668645664
 20
2.870365945547854
 42
1.0
 10
5.072839193692022
 20
2.877310390009843
 42
1.0
 10
5.065894718194512
 20
2.884254833927961
 42
1.0
 97
        0
 75
     0
 76
     1
 52
0.0
 41
0.5
 77
     0
 78
     1
 53
45.0
 43
0.0
 44
0.0
 45
-0.0441941738241592
 46
0.0441941738241592
 79
     0
 98
        1
 10
0.0
 20
0.0
  0
HATCH
  5
387
330
1F
100
AcDbEntity
  8
0
  6
Continuous
 62
     7
370
     5
100
AcDbHatch
 10
0.0
 20
0.0
 30
0.0
210
0.0
220
0.0
230
1.0
  2
ANSI31
 70
     0
 71
     0
 91
        1
 92
        0
 93
       44
 72
     4
 94
        3
 73
     1
 74
     0
 95
        8
 96
        4
 40
0.0
 40
0.0
 40
0.0
 40
0.0
 40
0.0022450689647558
 40
0.0022450689647558
 40
0.0022450689647558
 40
0.0022450689647558
 10
3.83673345473722
 20
2.905088167261294
 42
1.0
 10
3.843677929199625
 20
2.898143722308067
 42
1.0
 10
3.850622404153266
 20
2.891199277846079
 42
1.0
 10
3.857566879650775
 20
2.884254833927961
 42
1.0
 72
     4
 94
        3
 73
     1
 74
     0
 95
        8
 96
        4
 40
0.0
 40
0.0
 40
0.0
 40
0.0
 40
0.0022450689647558
 40
0.0022450689647558
 40
0.0022450689647558
 40
0.0022450689647558
 10
3.857566879650775
 20
2.884254833927961
 42
1.0
 10
3.850622404153266
 20
2.877310390009843
 42
1.0
 10
3.843677929199625
 20
2.870365945547854
 42
1.0
 10
3.83673345473722
 20
2.863421500594628
 42
1.0
 72
     4
 94
        3
 73
     1
 74
     0
 95
        8
 96
        4
 40
0.0
 40
0.0
 40
0.0
 40
0.0
 40
0.0022450689647558
 40
0.0022450689647558
 40
0.0022450689647558
 40
0.0022450689647558
 10
3.83673345473722
 20
2.863421500594628
 42
1.0
 10
3.843677929199625
 20
2.856477055641401
 42
1.0
 10
3.850622404153266
 20
2.849532611179412
 42
1.0
 10
3.857566879650775
 20
2.842588167261294
 42
1.0
 72
     4
 94
        3
 73
     1
 74
     0
 95
        8
 96
        4
 40
0.0
 40
0.0
 40
0.0
 40
0.0
 40
0.0022450689647558
 40
0.0022450689647558
 40
0.0022450689647558
 40
0.0022450689647558
 10
3.857566879650775
 20
2.842588167261294
 42
1.0
 10
3.850622404153266
 20
2.835643723343176
 42
1.0
 10
3.843677929199625
 20
2.828699278881188
 42
1.0
 10
3.83673345473722
 20
2.821754833927961
 42
1.0
 72
     4
 94
        3
 73
     1
 74
     0
 95
        8
 96
        4
 40
0.0
 40
0.0
 40
0.0
 40
0.0
 40
0.0022450689647558
 40
0.0022450689647558
 40
0.0022450689647558
 40
0.0022450689647558
 10
3.83673345473722
 20
2.821754833927961
 42
1.0
 10
3.843677929199625
 20
2.814810388974734
 42
1.0
 10
3.850622404153266
 20
2.807865944512745
 42
1.0
 10
3.857566879650775
 20
2.800921500594627
 42
1.0
 72
     4
 94
        3
 73
     1
 74
     0
 95
        8
 96
        4
 40
0.0
 40
0.0
 40
0.0
 40
0.0
 40
0.0022450689647558
 40
0.0022450689647558
 40
0.0022450689647558
 40
0.0022450689647558
 10
3.857566879650775
 20
2.800921500594627
 42
1.0
 10
3.850622404153266
 20
2.79397705667651
 42
1.0
 10
3.843677929199625
 20
2.787032612214521
 42
1.0
 10
3.83673345473722
 20
2.780088167261294
 42
1.0
 72
     4
 94
        3
 73
     1
 74
     0
 95
        8
 96
        4
 40
0.0
 40
0.0
 40
0.0
 40
0.0
 40
0.0022450689647558
 40
0.0022450689647558
 40
0.0022450689647558
 40
0.0022450689647558
 10
3.83673345473722
 20
2.780088167261294
 42
1.0
 10
3.843677929199625
 20
2.773143722308067
 42
1.0
 10
3.850622404153266
 20
2.766199277846079
 42
1.0
 10
3.857566879650775
 20
2.759254833927961
 42
1.0
 72
     1
 10
3.857566879650775
 20
2.759254833927961
 11
3.92093285864312
 21
2.759254833927961
 72
     1
 10
3.92093285864312
 20
2.759254833927961
 11
3.92093285864312
 21
3.363421500594628
 72
     1
 10
3.92093285864312
 20
3.363421500594628
 11
3.83182903243513
 21
3.363421500594628
 72
     4
 94
        3
 73
     1
 74
     0
 95
        8
 96
        4
 40
0.0
 40
0.0
 40
0.0
 40
0.0
 40
0.0101011686382423
 40
0.0101011686382423
 40
0.0101011686382423
 40
0.0101011686382423
 10
3.83182903243513
 20
3.363421500594628
 42
1.0
 10
3.788324057343694
 20
3.371155581825074
 42
1.0
 10
3.744819093272613
 20
3.378889725046099
 42
1.0
 10
3.701314132255978
 20
3.386623885448281
 42
1.0
 72
     1
 10
3.701314132255978
 20
3.386623885448281
 11
3.701314132255978
 21
3.446754833927961
 72
     1
 10
3.701314132255978
 20
3.446754833927961
 11
3.66001167151974
 21
3.446754833927961
 72
     1
 10
3.66001167151974
 20
3.446754833927961
 11
3.66001167151974
 21
3.321754833927961
 72
     1
 10
3.66001167151974
 20
3.321754833927961
 11
3.596783259658881
 21
3.321754833927961
 72
     1
 10
3.596783259658881
 20
3.321754833927961
 11
3.596783259658881
 21
3.446754833927961
 72
     1
 10
3.596783259658881
 20
3.446754833927961
 11
3.420064132255977
 21
3.446754833927961
 72
     1
 10
3.420064132255977
 20
3.446754833927961
 11
3.420064132255977
 21
3.467588167261294
 72
     1
 10
3.420064132255977
 20
3.467588167261294
 11
2.107564132255979
 21
3.467588167261294
 72
     1
 10
2.107564132255979
 20
3.467588167261294
 11
2.107564132255979
 21
3.384254833927961
 72
     1
 10
2.107564132255979
 20
3.384254833927961
 11
3.357564132255978
 21
3.384254833927961
 72
     4
 94
        3
 73
     1
 74
     0
 95
        8
 96
        4
 40
0.0
 40
0.0
 40
0.0
 40
0.0
 40
0.0153194782554178
 40
0.0153194782554178
 40
0.0153194782554178
 40
0.0153194782554178
 10
3.357564132255978
 20
3.384254833927961
 42
1.0
 10
3.423543942030268
 20
3.372525104824751
 42
1.0
 10
3.489523752728135
 20
3.360795380916662
 42
1.0
 10
3.555503566553705
 20
3.349065674601956
 42
1.0
 72
     1
 10
3.555503566553705
 20
3.349065674601956
 11
3.555503566553714
 21
3.311338167261294
 72
     2
 10
3.628397465589311
 20
3.311338167261294
 40
0.0728938990355959
 50
180.0
 51
360.0000000000008
 73
     1
 72
     1
 10
3.701291364624907
 20
3.311338167261294
 11
3.701291364624913
 21
3.323147974165208
 72
     4
 94
        3
 73
     1
 74
     0
 95
        8
 96
        4
 40
0.0
 40
0.0
 40
0.0
 40
0.0
 40
0.0096763084629622
 40
0.0096763084629622
 40
0.0096763084629622
 40
0.0096763084629622
 10
3.701291364624913
 20
3.323147974165208
 42
1.0
 10
3.742966485847985
 20
3.315739119194575
 42
1.0
 10
3.784641610133969
 20
3.308330281452766
 42
1.0
 10
3.826316744532428
 20
3.300921500594627
 42
1.0
 72
     1
 10
3.826316744532428
 20
3.300921500594627
 11
3.83673345473722
 21
3.300921500594627
 72
     1
 10
3.83673345473722
 20
3.300921500594627
 11
3.83673345473722
 21
3.181129833927961
 72
     4
 94
        3
 73
     1
 74
     0
 95
       20
 96
       16
 40
0.0
 40
0.0
 40
0.0
 40
0.0
 40
0.0001332588408643
 40
0.0001332588408643
 40
0.0001332588408643
 40
0.000266517665921
 40
0.000266517665921
 40
0.000266517665921
 40
0.000399776742421
 40
0.000399776742421
 40
0.000399776742421
 40
0.0005330363638632
 40
0.0005330363638632
 40
0.0005330363638632
 40
0.0006199833033898
 40
0.0006199833033898
 40
0.0006199833033898
 40
0.0006199833033898
 10
3.83673345473722
 20
3.181129833927961
 42
1.0
 10
3.83673345473722
 20
3.180546899365999
 42
1.0
 10
3.836834099377254
 20
3.179955925778509
 42
1.0
 10
3.837027054090886
 20
3.179405851981627
 42
1.0
 10
3.837220008791781
 20
3.178855778221058
 42
1.0
 10
3.837510595439818
 20
3.178331432560528
 42
1.0
 10
3.83787475022694
 20
3.177876235955004
 42
1.0
 10
3.838238905710029
 20
3.177421038479516
 42
1.0
 10
3.83868667338684
 20
3.177022435459411
 42
1.0
 10
3.839180973456782
 20
3.176713434814735
 42
1.0
 10
3.839675275526869
 20
3.176404432919713
 42
1.0
 10
3.840229743744251
 20
3.176176511496612
 42
1.0
 10
3.840798462595017
 20
3.17604854440552
 42
1.0
 10
3.841172570594819
 20
3.175964366586508
 42
1.0
 10
3.841558348916132
 20
3.175921500594628
 42
1.0
 10
3.841941810388419
 20
3.175921500594628
 42
1.0
 72
     1
 10
3.841941810388419
 20
3.175921500594628
 11
3.844992794666308
 21
3.175921500594628
 72
     4
 94
        3
 73
     1
 74
     0
 95
       26
 96
       22
 40
0.0
 40
0.0
 40
0.0
 40
0.0
 40
0.0001311534494107
 40
0.0001311534494107
 40
0.0001311534494107
 40
0.0002644734920921
 40
0.0002644734920921
 40
0.0002644734920921
 40
0.0003977930115725
 40
0.0003977930115725
 40
0.0003977930115725
 40
0.0005311122890008
 40
0.0005311122890008
 40
0.0005311122890008
 40
0.0006644317144863
 40
0.0006644317144863
 40
0.0006644317144863
 40
0.0007977514742173
 40
0.0007977514742173
 40
0.0007977514742173
 40
0.0009310712099275
 40
0.0009310712099275
 40
0.0009310712099275
 40
0.0009310712099275
 10
3.844992794666308
 20
3.175921500594628
 42
1.0
 10
3.845566519291902
 20
3.175921500594628
 42
1.0
 10
3.846147913077679
 20
3.175824097371694
 42
1.0
 10
3.846690310743976
 20
3.175637108822289
 42
1.0
 10
3.847241417988467
 20
3.175447117694712
 42
1.0
 10
3.847767323266904
 20
3.175159357610041
 42
1.0
 10
3.848224476334443
 20
3.174797657601291
 42
1.0
 10
3.848681627622013
 20
3.174435959000855
 42
1.0
 10
3.849082635890782
 20
3.173990345032328
 42
1.0
 10
3.849394293424251
 20
3.173497716613419
 42
1.0
 10
3.84970595038448
 20
3.173005089100615
 42
1.0
 10
3.849936852726734
 20
3.17245186011577
 42
1.0
 10
3.850067879124187
 20
3.171883842501253
 42
1.0
 10
3.850198905658265
 20
3.171315824294452
 42
1.0
 10
3.850233669878061
 20
3.170717350804918
 42
1.0
 10
3.850169292888909
 20
3.170137981976659
 42
1.0
 10
3.850104915741728
 20
3.169558611726191
 42
1.0
 10
3.849939621290003
 20
3.168982366433666
 42
1.0
 10
3.849687097921223
 20
3.168456965394052
 42
1.0
 10
3.84943457458027
 20
3.167931564412334
 42
1.0
 10
3.849087857470483
 20
3.167442516439531
 42
1.0
 10
3.848675658653104
 20
3.167030319442614
 42
1.0
 72
     4
 94
        3
 73
     1
 74
     0
 95
        8
 96
        4
 40
0.0
 40
0.0
 40
0.0
 40
0.0
 40
0.0012869258102413
 40
0.0012869258102413
 40
0.0012869258102413
 40
0.0012869258102413
 10
3.848675658653104
 20
3.167030319442614
 42
1.0
 10
3.844694923846514
 20
3.163049602216803
 42
1.0
 10
3.840714189211095
 20
3.159068884819821
 42
1.0
 10
3.83673345473722
 20
3.155088167261294
 42
1.0
 72
     4
 94
        3
 73
     1
 74
     0
 95
        8
 96
        4
 40
0.0
 40
0.0
 40
0.0
 40
0.0
 40
0.0022450689647558
 40
0.0022450689647558
 40
0.0022450689647558
 40
0.0022450689647558
 10
3.83673345473722
 20
3.155088167261294
 42
1.0
 10
3.843677929199625
 20
3.148143722308067
 42
1.0
 10
3.850622404153266
 20
3.141199277846078
 42
1.0
 10
3.857566879650775
 20
3.134254833927961
 42
1.0
 72
     4
 94
        3
 73
     1
 74
     0
 95
        8
 96
        4
 40
0.0
 40
0.0
 40
0.0
 40
0.0
 40
0.0022450689647558
 40
0.0022450689647558
 40
0.0022450689647558
 40
0.0022450689647558
 10
3.857566879650775
 20
3.134254833927961
 42
1.0
 10
3.850622404153266
 20
3.127310390009843
 42
1.0
 10
3.843677929199625
 20
3.120365945547854
 42
1.0
 10
3.83673345473722
 20
3.113421500594627
 42
1.0
 72
     4
 94
        3
 73
     1
 74
     0
 95
        8
 96
        4
 40
0.0
 40
0.0
 40
0.0
 40
0.0
 40
0.0022450689647558
 40
0.0022450689647558
 40
0.0022450689647558
 40
0.0022450689647558
 10
3.83673345473722
 20
3.113421500594627
 42
1.0
 10
3.843677929199625
 20
3.106477055641401
 42
1.0
 10
3.850622404153266
 20
3.099532611179412
 42
1.0
 10
3.857566879650775
 20
3.092588167261294
 42
1.0
 72
     4
 94
        3
 73
     1
 74
     0
 95
        8
 96
        4
 40
0.0
 40
0.0
 40
0.0
 40
0.0
 40
0.0022450689647558
 40
0.0022450689647558
 40
0.0022450689647558
 40
0.0022450689647558
 10
3.857566879650775
 20
3.092588167261294
 42
1.0
 10
3.850622404153266
 20
3.085643723343176
 42
1.0
 10
3.843677929199625
 20
3.078699278881188
 42
1.0
 10
3.83673345473722
 20
3.071754833927961
 42
1.0
 72
     4
 94
        3
 73
     1
 74
     0
 95
        8
 96
        4
 40
0.0
 40
0.0
 40
0.0
 40
0.0
 40
0.0022450689647558
 40
0.0022450689647558
 40
0.0022450689647558
 40
0.0022450689647558
 10
3.83673345473722
 20
3.071754833927961
 42
1.0
 10
3.843677929199625
 20
3.064810388974734
 42
1.0
 10
3.850622404153266
 20
3.057865944512745
 42
1.0
 10
3.857566879650775
 20
3.050921500594628
 42
1.0
 72
     4
 94
        3
 73
     1
 74
     0
 95
        8
 96
        4
 40
0.0
 40
0.0
 40
0.0
 40
0.0
 40
0.0022450689647558
 40
0.0022450689647558
 40
0.0022450689647558
 40
0.0022450689647558
 10
3.857566879650775
 20
3.050921500594628
 42
1.0
 10
3.850622404153266
 20
3.04397705667651
 42
1.0
 10
3.843677929199625
 20
3.037032612214521
 42
1.0
 10
3.83673345473722
 20
3.030088167261294
 42
1.0
 72
     4
 94
        3
 73
     1
 74
     0
 95
        8
 96
        4
 40
0.0
 40
0.0
 40
0.0
 40
0.0
 40
0.0022450689647558
 40
0.0022450689647558
 40
0.0022450689647558
 40
0.0022450689647558
 10
3.83673345473722
 20
3.030088167261294
 42
1.0
 10
3.843677929199625
 20
3.023143722308067
 42
1.0
 10
3.850622404153266
 20
3.016199277846079
 42
1.0
 10
3.857566879650775
 20
3.009254833927961
 42
1.0
 72
     4
 94
        3
 73
     1
 74
     0
 95
        8
 96
        4
 40
0.0
 40
0.0
 40
0.0
 40
0.0
 40
0.0022450689647558
 40
0.0022450689647558
 40
0.0022450689647558
 40
0.0022450689647558
 10
3.857566879650775
 20
3.009254833927961
 42
1.0
 10
3.850622404153266
 20
3.002310390009843
 42
1.0
 10
3.843677929199625
 20
2.995365945547854
 42
1.0
 10
3.83673345473722
 20
2.988421500594627
 42
1.0
 72
     4
 94
        3
 73
     1
 74
     0
 95
        8
 96
        4
 40
0.0
 40
0.0
 40
0.0
 40
0.0
 40
0.0022450689647558
 40
0.0022450689647558
 40
0.0022450689647558
 40
0.0022450689647558
 10
3.83673345473722
 20
2.988421500594627
 42
1.0
 10
3.843677929199625
 20
2.981477055641401
 42
1.0
 10
3.850622404153266
 20
2.974532611179412
 42
1.0
 10
3.857566879650775
 20
2.967588167261294
 42
1.0
 72
     4
 94
        3
 73
     1
 74
     0
 95
        8
 96
        4
 40
0.0
 40
0.0
 40
0.0
 40
0.0
 40
0.0022450689647558
 40
0.0022450689647558
 40
0.0022450689647558
 40
0.0022450689647558
 10
3.857566879650775
 20
2.967588167261294
 42
1.0
 10
3.850622404153266
 20
2.960643723343176
 42
1.0
 10
3.843677929199625
 20
2.953699278881188
 42
1.0
 10
3.83673345473722
 20
2.946754833927961
 42
1.0
 72
     4
 94
        3
 73
     1
 74
     0
 95
        8
 96
        4
 40
0.0
 40
0.0
 40
0.0
 40
0.0
 40
0.0022450689647558
 40
0.0022450689647558
 40
0.0022450689647558
 40
0.0022450689647558
 10
3.83673345473722
 20
2.946754833927961
 42
1.0
 10
3.843677929199625
 20
2.939810388974734
 42
1.0
 10
3.850622404153266
 20
2.932865944512745
 42
1.0
 10
3.857566879650775
 20
2.925921500594627
 42
1.0
 72
     4
 94
        3
 73
     1
 74
     0
 95
        8
 96
        4
 40
0.0
 40
0.0
 40
0.0
 40
0.0
 40
0.0022450689647558
 40
0.0022450689647558
 40
0.0022450689647558
 40
0.0022450689647558
 10
3.857566879650775
 20
2.925921500594627
 42
1.0
 10
3.850622404153266
 20
2.91897705667651
 42
1.0
 10
3.843677929199625
 20
2.912032612214521
 42
1.0
 10
3.83673345473722
 20
2.905088167261294
 42
1.0
 97
        0
 75
     0
 76
     1
 52
0.0
 41
0.5
 77
     0
 78
     1
 53
45.0
 43
0.0
 44
0.0
 45
-0.0441941738241592
 46
0.0441941738241592
 79
     0
 98
        1
 10
0.0
 20
0.0
  0
HATCH
  5
388
330
1F
100
AcDbEntity
  8
0
  6
Continuous
 62
     7
370
     5
100
AcDbHatch
 10
0.0
 20
0.0
 30
0.0
210
0.0
220
0.0
230
1.0
  2
ANSI33
 70
     0
 71
     0
 91
        1
 92
        0
 93
        7
 72
     1
 10
5.399230798922643
 20
3.488421500594628
 11
5.399230798922643
 21
3.550921500594628
 72
     1
 10
5.399230798922643
 20
3.550921500594628
 11
4.670064132255977
 21
3.550921500594628
 72
     1
 10
4.670064132255977
 20
3.550921500594628
 11
4.670064132255977
 21
3.446754833927961
 72
     1
 10
4.670064132255977
 20
3.446754833927961
 11
5.139730798922644
 21
3.446754833927961
 72
     1
 10
5.139730798922644
 20
3.446754833927961
 11
5.211730798922643
 21
3.488324053309614
 72
     1
 10
5.211730798922643
 20
3.488324053309614
 11
5.211730798922643
 21
3.488421500594628
 72
     1
 10
5.211730798922643
 20
3.488421500594628
 11
5.399230798922643
 21
3.488421500594628
 97
        0
 75
     0
 76
     1
 52
0.0
 41
0.3333333333333333
 77
     0
 78
     2
 53
45.0
 43
0.0
 44
0.0
 45
-0.058925565098879
 46
0.058925565098879
 79
     0
 53
45.0
 43
0.058925565
 44
0.0
 45
-0.058925565098879
 46
0.058925565098879
 79
     2
 49
0.0416666666666667
 49
-0.0208333333333333
 98
        1
 10
0.0
 20
0.0
  0
HATCH
  5
389
330
1F
100
AcDbEntity
  8
0
  6
Continuous
 62
     7
370
     5
100
AcDbHatch
 10
0.0
 20
0.0
 30
0.0
210
0.0
220
0.0
230
1.0
  2
ANSI33
 70
     0
 71
     0
 91
        1
 92
        0
 93
        7
 72
     1
 10
3.524230798922644
 20
3.550921500594628
 11
3.524230798922644
 21
3.488421500594628
 72
     1
 10
3.524230798922644
 20
3.488421500594628
 11
3.711730798922644
 21
3.488421500594628
 72
     1
 10
3.711730798922644
 20
3.488421500594628
 11
3.711730798922644
 21
3.488324053309614
 72
     1
 10
3.711730798922644
 20
3.488324053309614
 11
3.783730798922644
 21
3.446754833927961
 72
     1
 10
3.783730798922644
 20
3.446754833927961
 11
4.253397465589311
 21
3.446754833927961
 72
     1
 10
4.253397465589311
 20
3.446754833927961
 11
4.253397465589311
 21
3.550921500594628
 72
     1
 10
4.253397465589311
 20
3.550921500594628
 11
3.524230798922644
 21
3.550921500594628
 97
        0
 75
     0
 76
     1
 52
0.0
 41
0.3333333333333333
 77
     0
 78
     2
 53
45.0
 43
0.0
 44
0.0
 45
-0.058925565098879
 46
0.058925565098879
 79
     0
 53
45.0
 43
0.058925565
 44
0.0
 45
-0.058925565098879
 46
0.058925565098879
 79
     2
 49
0.0416666666666667
 49
-0.0208333333333333
 98
        1
 10
0.0
 20
0.0
  0
HATCH
  5
38A
330
1F
100
AcDbEntity
  8
0
  6
Continuous
 62
     7
370
     5
100
AcDbHatch
 10
0.0
 20
0.0
 30
0.0
210
0.0
220
0.0
230
1.0
  2
ANSI33
 70
     0
 71
     0
 91
        1
 92
        0
 93
        4
 72
     1
 10
4.336730798922644
 20
3.550921500594628
 11
4.336730798922644
 21
3.488421500594628
 72
     1
 10
4.336730798922644
 20
3.488421500594628
 11
4.586730798922644
 21
3.488421500594628
 72
     1
 10
4.586730798922644
 20
3.488421500594628
 11
4.586730798922644
 21
3.550921500594628
 72
     1
 10
4.586730798922644
 20
3.550921500594628
 11
4.336730798922644
 21
3.550921500594628
 97
        0
 75
     0
 76
     1
 52
0.0
 41
0.3333333333333333
 77
     0
 78
     2
 53
45.0
 43
0.0
 44
0.0
 45
-0.058925565098879
 46
0.058925565098879
 79
     0
 53
45.0
 43
0.058925565
 44
0.0
 45
-0.058925565098879
 46
0.058925565098879
 79
     2
 49
0.0416666666666667
 49
-0.0208333333333333
 98
        1
 10
0.0
 20
0.0
  0
HATCH
  5
38B
330
1F
100
AcDbEntity
  8
0
  6
Continuous
 62
     7
370
     5
100
AcDbHatch
 10
0.0
 20
0.0
 30
0.0
210
0.0
220
0.0
230
1.0
  2
ANSI33
 70
     0
 71
     0
 91
        1
 92
        0
 93
        6
 72
     1
 10
5.268459783928214
 20
3.356088167261294
 11
5.321668480583741
 21
3.356088167261294
 72
     1
 10
5.321668480583741
 20
3.356088167261294
 11
5.321668480583741
 21
3.441432970244427
 72
     4
 94
        3
 73
     1
 74
     0
 95
        8
 96
        4
 40
0.0
 40
0.0
 40
0.0
 40
0.0
 40
0.0019015546203331
 40
0.0019015546203331
 40
0.0019015546203331
 40
0.0019015546203331
 10
5.321668480583741
 20
3.441432970244427
 42
1.0
 10
5.327133021388452
 20
3.447704514806282
 42
1.0
 10
5.332593741968003
 20
3.453979387612198
 42
1.0
 10
5.338053801577173
 20
3.460254833927961
 42
1.0
 72
     1
 10
5.338053801577173
 20
3.460254833927961
 11
5.252074462934783
 21
3.460254833927961
 72
     4
 94
        3
 73
     1
 74
     0
 95
        8
 96
        4
 40
0.0
 40
0.0
 40
0.0
 40
0.0
 40
0.0019015546203331
 40
0.0019015546203331
 40
0.0019015546203331
 40
0.0019015546203331
 10
5.252074462934783
 20
3.460254833927961
 42
1.0
 10
5.257534522543952
 20
3.453979387612198
 42
1.0
 10
5.262995243123502
 20
3.447704514806282
 42
1.0
 10
5.268459783928214
 20
3.441432970244427
 42
1.0
 72
     1
 10
5.268459783928214
 20
3.441432970244427
 11
5.268459783928214
 21
3.356088167261294
 97
        0
 75
     0
 76
     1
 52
0.0
 41
1.0
 77
     0
 78
     2
 53
45.0
 43
0.0
 44
0.0
 45
-0.1767766952966369
 46
0.1767766952966369
 79
     0
 53
45.0
 43
0.176776695
 44
0.0
 45
-0.1767766952966369
 46
0.1767766952966369
 79
     2
 49
0.125
 49
-0.0625
 98
        1
 10
0.0
 20
0.0
  0
HATCH
  5
38C
330
1F
100
AcDbEntity
  8
0
  6
Continuous
 62
     7
370
     5
100
AcDbHatch
 10
0.0
 20
0.0
 30
0.0
210
0.0
220
0.0
230
1.0
  2
ANSI33
 70
     0
 71
     0
 91
        1
 92
        0
 93
        6
 72
     1
 10
3.601793117261547
 20
3.356088167261294
 11
3.655001813917074
 21
3.356088167261294
 72
     1
 10
3.655001813917074
 20
3.356088167261294
 11
3.655001813917074
 21
3.441432970244427
 72
     4
 94
        3
 73
     1
 74
     0
 95
        8
 96
        4
 40
0.0
 40
0.0
 40
0.0
 40
0.0
 40
0.0019015546203331
 40
0.0019015546203331
 40
0.0019015546203331
 40
0.0019015546203331
 10
3.655001813917074
 20
3.441432970244427
 42
1.0
 10
3.660466354721786
 20
3.447704514806282
 42
1.0
 10
3.665927075301337
 20
3.453979387612198
 42
1.0
 10
3.671387134910505
 20
3.460254833927961
 42
1.0
 72
     1
 10
3.671387134910505
 20
3.460254833927961
 11
3.585407796268116
 21
3.460254833927961
 72
     4
 94
        3
 73
     1
 74
     0
 95
        8
 96
        4
 40
0.0
 40
0.0
 40
0.0
 40
0.0
 40
0.0019015546203331
 40
0.0019015546203331
 40
0.0019015546203331
 40
0.0019015546203331
 10
3.585407796268116
 20
3.460254833927961
 42
1.0
 10
3.590867855877285
 20
3.453979387612198
 42
1.0
 10
3.596328576456835
 20
3.447704514806282
 42
1.0
 10
3.601793117261547
 20
3.441432970244427
 42
1.0
 72
     1
 10
3.601793117261547
 20
3.441432970244427
 11
3.601793117261547
 21
3.356088167261294
 97
        0
 75
     0
 76
     1
 52
0.0
 41
1.0
 77
     0
 78
     2
 53
45.0
 43
0.0
 44
0.0
 45
-0.1767766952966369
 46
0.1767766952966369
 79
     0
 53
45.0
 43
0.176776695
 44
0.0
 45
-0.1767766952966369
 46
0.1767766952966369
 79
     2
 49
0.125
 49
-0.0625
 98
        1
 10
0.0
 20
0.0
  0
ENDSEC
  0
SECTION
  2
OBJECTS
  0
DICTIONARY
  5
C
330
0
100
AcDbDictionary
281
     1
  3
ACAD_COLOR
350
3E3
  3
ACAD_GROUP
350
D
  3
ACAD_LAYOUT
350
1A
  3
ACAD_MATERIAL
350
3CA
  3
ACAD_MLEADERSTYLE
350
3C8
  3
ACAD_MLINESTYLE
350
17
  3
ACAD_PLOTSETTINGS
350
19
  3
ACAD_PLOTSTYLENAME
350
E
  3
ACAD_SCALELIST
350
3B
  3
ACAD_TABLESTYLE
350
3C7
  3
ACAD_VISUALSTYLE
350
2A
  3
ACDB_RECOMPOSE_DATA
350
3F4
  3
AcDbVariableDictionary
350
3C5
  3
DWGPROPS
350
3F5
  0
DICTIONARY
  5
3E9
330
10
100
AcDbDictionary
280
     1
281
     1
  3
ADSK_XREC_LAYER_RECONCILED
360
3EA
  0
DICTIONARY
  5
3EB
330
62
100
AcDbDictionary
280
     1
281
     1
  3
ADSK_XREC_LAYER_RECONCILED
360
3EC
  0
DICTIONARY
  5
3E3
102
{ACAD_REACTORS
330
C
102
}
330
C
100
AcDbDictionary
281
     1
  0
DICTIONARY
  5
D
102
{ACAD_REACTORS
330
C
102
}
330
C
100
AcDbDictionary
281
     1
  0
DICTIONARY
  5
1A
102
{ACAD_REACTORS
330
C
102
}
330
C
100
AcDbDictionary
281
     1
  3
Layout1
350
1E
  3
Layout2
350
26
  3
Model
350
22
  0
DICTIONARY
  5
3CA
102
{ACAD_REACTORS
330
C
102
}
330
C
100
AcDbDictionary
281
     1
  3
ByBlock
350
3D3
  3
ByLayer
350
3CB
  3
Global
350
3DB
  0
DICTIONARY
  5
3C8
102
{ACAD_REACTORS
330
C
102
}
330
C
100
AcDbDictionary
281
     1
  3
Standard
350
3E5
  0
DICTIONARY
  5
17
102
{ACAD_REACTORS
330
C
102
}
330
C
100
AcDbDictionary
281
     1
  3
Standard
350
18
  0
DICTIONARY
  5
19
102
{ACAD_REACTORS
330
C
102
}
330
C
100
AcDbDictionary
281
     1
  0
ACDBDICTIONARYWDFLT
  5
E
102
{ACAD_REACTORS
330
C
102
}
330
C
100
AcDbDictionary
281
     1
  3
Normal
350
F
100
AcDbDictionaryWithDefault
340
F
  0
DICTIONARY
  5
3B
102
{ACAD_REACTORS
330
C
102
}
330
C
100
AcDbDictionary
281
     1
  3
A0
350
3C
  3
A1
350
3D
  3
A2
350
3E
  3
A3
350
3F
  3
A4
350
40
  3
A5
350
41
  3
A6
350
42
  3
A7
350
43
  3
A8
350
44
  3
A9
350
45
  3
B0
350
46
  3
B1
350
47
  3
B2
350
48
  3
B3
350
49
  3
B4
350
4A
  3
B5
350
4B
  3
B6
350
4C
  3
B7
350
4D
  3
B8
350
4E
  3
B9
350
4F
  3
C0
350
50
  3
C1
350
51
  3
C2
350
52
  3
C3
350
53
  3
C4
350
54
  3
C5
350
55
  3
C6
350
56
  3
C7
350
57
  3
C8
350
58
  3
C9
350
59
  3
D0
350
5A
  3
D1
350
5B
  3
D2
350
5C
  0
DICTIONARY
  5
3C7
102
{ACAD_REACTORS
330
C
102
}
330
C
100
AcDbDictionary
281
     1
  3
Standard
350
3E4
  0
DICTIONARY
  5
2A
102
{ACAD_REACTORS
330
C
102
}
330
C
100
AcDbDictionary
281
     1
  3
2dWireframe
350
2F
  3
3D Hidden
350
31
  3
3dWireframe
350
30
  3
Basic
350
32
  3
Brighten
350
36
  3
ColorChange
350
3A
  3
Conceptual
350
34
  3
Dim
350
35
  3
Facepattern
350
39
  3
Flat
350
2B
  3
FlatWithEdges
350
2C
  3
Gouraud
350
2D
  3
GouraudWithEdges
350
2E
  3
Linepattern
350
38
  3
Realistic
350
33
  3
Thicken
350
37
  0
XRECORD
  5
3F4
102
{ACAD_REACTORS
330
C
102
}
330
C
100
AcDbXrecord
280
     1
 90
        1
330
3E4
  0
DICTIONARY
  5
3C5
102
{ACAD_REACTORS
330
C
102
}
330
C
100
AcDbDictionary
281
     1
  3
CANNOSCALE
350
3C6
  3
CMLEADERSTYLE
350
3EE
  3
CTABLESTYLE
350
3ED
  3
DIMASSOC
350
3F1
  3
INDEXCTL
350
3F0
  3
SORTENTS
350
3EF
  0
XRECORD
  5
3F5
102
{ACAD_REACTORS
330
C
102
}
330
C
100
AcDbXrecord
280
     1
  1
DWGPROPS COOKIE
  2

  3

  4

  6

  7

  8
Jason Jacobs
  9

300
=
301
=
302
=
303
=
304
=
305
=
306
=
307
=
308
=
309
=
 40
0.0012425925925926
 41
2455441.565102778
 42
2455441.566793322
  1

 90
        0
  0
XRECORD
  5
3EA
102
{ACAD_REACTORS
330
3E9
102
}
330
3E9
100
AcDbXrecord
280
     1
290
     1
  0
XRECORD
  5
3EC
102
{ACAD_REACTORS
330
3EB
102
}
330
3EB
100
AcDbXrecord
280
     1
290
     1
  0
LAYOUT
  5
1E
102
{ACAD_XDICTIONARY
360
3F6
102
}
102
{ACAD_REACTORS
330
1A
102
}
330
1A
100
AcDbPlotSettings
  1

  2
none_device
  4

  6

 40
0.0
 41
0.0
 42
0.0
 43
0.0
 44
0.0
 45
0.0
 46
0.0
 47
0.0
 48
0.0
 49
0.0
140
0.0
141
0.0
142
1.0
143
1.0
 70
   688
 72
     0
 73
     0
 74
     5
  7

 75
    16
147
1.0
148
0.0
149
0.0
100
AcDbLayout
  1
Layout1
 70
     1
 71
     1
 10
0.0
 20
0.0
 11
12.0
 21
9.0
 12
0.0
 22
0.0
 32
0.0
 14
1.000000000000000E+20
 24
1.000000000000000E+20
 34
1.000000000000000E+20
 15
-1.000000000000000E+20
 25
-1.000000000000000E+20
 35
-1.000000000000000E+20
146
0.0
 13
0.0
 23
0.0
 33
0.0
 16
1.0
 26
0.0
 36
0.0
 17
0.0
 27
1.0
 37
0.0
 76
     0
330
1B
  0
LAYOUT
  5
26
102
{ACAD_XDICTIONARY
360
3FA
102
}
102
{ACAD_REACTORS
330
1A
102
}
330
1A
100
AcDbPlotSettings
  1

  2
none_device
  4

  6

 40
0.0
 41
0.0
 42
0.0
 43
0.0
 44
0.0
 45
0.0
 46
0.0
 47
0.0
 48
0.0
 49
0.0
140
0.0
141
0.0
142
1.0
143
1.0
 70
   688
 72
     0
 73
     0
 74
     5
  7

 75
    16
147
1.0
148
0.0
149
0.0
100
AcDbLayout
  1
Layout2
 70
     1
 71
     2
 10
0.0
 20
0.0
 11
0.0
 21
0.0
 12
0.0
 22
0.0
 32
0.0
 14
0.0
 24
0.0
 34
0.0
 15
0.0
 25
0.0
 35
0.0
146
0.0
 13
0.0
 23
0.0
 33
0.0
 16
1.0
 26
0.0
 36
0.0
 17
0.0
 27
1.0
 37
0.0
 76
     0
330
23
  0
LAYOUT
  5
22
102
{ACAD_XDICTIONARY
360
3F8
102
}
102
{ACAD_REACTORS
330
1A
102
}
330
1A
100
AcDbPlotSettings
  1

  2
none_device
  4

  6

 40
0.0
 41
0.0
 42
0.0
 43
0.0
 44
0.0
 45
0.0
 46
0.0
 47
0.0
 48
0.0
 49
0.0
140
0.0
141
0.0
142
1.0
143
1.0
 70
  1712
 72
     0
 73
     0
 74
     0
  7

 75
     0
147
1.0
148
0.0
149
0.0
100
AcDbLayout
  1
Model
 70
     1
 71
     0
 10
0.0
 20
0.0
 11
8.5
 21
11.0
 12
0.0
 22
0.0
 32
0.0
 14
0.0
 24
0.0
 34
0.0
 15
8.5
 25
11.0
 35
0.0
146
0.0
 13
0.0
 23
0.0
 33
0.0
 16
1.0
 26
0.0
 36
0.0
 17
0.0
 27
1.0
 37
0.0
 76
     0
330
1F
331
29
  0
MATERIAL
  5
3D3
102
{ACAD_XDICTIONARY
360
3D4
102
}
102
{ACAD_REACTORS
330
3CA
102
}
330
3CA
100
AcDbMaterial
  1
ByBlock
 72
     0
 43
0.0208333333333333
 43
0.0
 43
0.0
 43
0.0
 43
0.0
 43
0.0208333333333333
 43
0.0
 43
0.0
 43
0.0
 43
0.0
 43
1.0
 43
0.0
 43
0.0
 43
0.0
 43
0.0
 43
1.0
 77
     0
 47
0.0208333333333333
 47
0.0
 47
0.0
 47
0.0
 47
0.0
 47
0.0208333333333333
 47
0.0
 47
0.0
 47
0.0
 47
0.0
 47
1.0
 47
0.0
 47
0.0
 47
0.0
 47
0.0
 47
1.0
171
     0
 49
0.0208333333333333
 49
0.0
 49
0.0
 49
0.0
 49
0.0
 49
0.0208333333333333
 49
0.0
 49
0.0
 49
0.0
 49
0.0
 49
1.0
 49
0.0
 49
0.0
 49
0.0
 49
0.0
 49
1.0
175
     0
142
0.0208333333333333
142
0.0
142
0.0
142
0.0
142
0.0
142
0.0208333333333333
142
0.0
142
0.0
142
0.0
142
0.0
142
1.0
142
0.0
142
0.0
142
0.0
142
0.0
142
1.0
179
     0
144
0.0208333333333333
144
0.0
144
0.0
144
0.0
144
0.0
144
0.0208333333333333
144
0.0
144
0.0
144
0.0
144
0.0
144
1.0
144
0.0
144
0.0
144
0.0
144
0.0
144
1.0
147
0.0208333333333333
147
0.0
147
0.0
147
0.0
147
0.0
147
0.0208333333333333
147
0.0
147
0.0
147
0.0
147
0.0
147
1.0
147
0.0
147
0.0
147
0.0
147
0.0
147
1.0
  0
MATERIAL
  5
3CB
102
{ACAD_XDICTIONARY
360
3CC
102
}
102
{ACAD_REACTORS
330
3CA
102
}
330
3CA
100
AcDbMaterial
  1
ByLayer
 72
     0
 43
0.0208333333333333
 43
0.0
 43
0.0
 43
0.0
 43
0.0
 43
0.0208333333333333
 43
0.0
 43
0.0
 43
0.0
 43
0.0
 43
1.0
 43
0.0
 43
0.0
 43
0.0
 43
0.0
 43
1.0
 77
     0
 47
0.0208333333333333
 47
0.0
 47
0.0
 47
0.0
 47
0.0
 47
0.0208333333333333
 47
0.0
 47
0.0
 47
0.0
 47
0.0
 47
1.0
 47
0.0
 47
0.0
 47
0.0
 47
0.0
 47
1.0
171
     0
 49
0.0208333333333333
 49
0.0
 49
0.0
 49
0.0
 49
0.0
 49
0.0208333333333333
 49
0.0
 49
0.0
 49
0.0
 49
0.0
 49
1.0
 49
0.0
 49
0.0
 49
0.0
 49
0.0
 49
1.0
175
     0
142
0.0208333333333333
142
0.0
142
0.0
142
0.0
142
0.0
142
0.0208333333333333
142
0.0
142
0.0
142
0.0
142
0.0
142
1.0
142
0.0
142
0.0
142
0.0
142
0.0
142
1.0
179
     0
144
0.0208333333333333
144
0.0
144
0.0
144
0.0
144
0.0
144
0.0208333333333333
144
0.0
144
0.0
144
0.0
144
0.0
144
1.0
144
0.0
144
0.0
144
0.0
144
0.0
144
1.0
147
0.0208333333333333
147
0.0
147
0.0
147
0.0
147
0.0
147
0.0208333333333333
147
0.0
147
0.0
147
0.0
147
0.0
147
1.0
147
0.0
147
0.0
147
0.0
147
0.0
147
1.0
  0
MATERIAL
  5
3DB
102
{ACAD_XDICTIONARY
360
3DC
102
}
102
{ACAD_REACTORS
330
3CA
102
}
330
3CA
100
AcDbMaterial
  1
Global
 72
     0
 43
0.0208333333333333
 43
0.0
 43
0.0
 43
0.0
 43
0.0
 43
0.0208333333333333
 43
0.0
 43
0.0
 43
0.0
 43
0.0
 43
1.0
 43
0.0
 43
0.0
 43
0.0
 43
0.0
 43
1.0
 77
     0
 47
0.0208333333333333
 47
0.0
 47
0.0
 47
0.0
 47
0.0
 47
0.0208333333333333
 47
0.0
 47
0.0
 47
0.0
 47
0.0
 47
1.0
 47
0.0
 47
0.0
 47
0.0
 47
0.0
 47
1.0
171
     0
 49
0.0208333333333333
 49
0.0
 49
0.0
 49
0.0
 49
0.0
 49
0.0208333333333333
 49
0.0
 49
0.0
 49
0.0
 49
0.0
 49
1.0
 49
0.0
 49
0.0
 49
0.0
 49
0.0
 49
1.0
175
     0
142
0.0208333333333333
142
0.0
142
0.0
142
0.0
142
0.0
142
0.0208333333333333
142
0.0
142
0.0
142
0.0
142
0.0
142
1.0
142
0.0
142
0.0
142
0.0
142
0.0
142
1.0
179
     0
144
0.0208333333333333
144
0.0
144
0.0
144
0.0
144
0.0
144
0.0208333333333333
144
0.0
144
0.0
144
0.0
144
0.0
144
1.0
144
0.0
144
0.0
144
0.0
144
0.0
144
1.0
147
0.0208333333333333
147
0.0
147
0.0
147
0.0
147
0.0
147
0.0208333333333333
147
0.0
147
0.0
147
0.0
147
0.0
147
1.0
147
0.0
147
0.0
147
0.0
147
0.0
147
1.0
  0
MLEADERSTYLE
  5
3E5
102
{ACAD_REACTORS
330
3C8
102
}
330
3C8
100
AcDbMLeaderStyle
170
     2
171
     1
172
     0
 90
        2
 40
0.0
 41
0.0
173
     1
 91
-1056964608
340
14
 92
       -2
290
     1
 42
0.09
291
     1
 43
0.36
  3
Standard
 44
0.18
300

342
11
174
     1
178
     6
175
     1
176
     0
 93
-1056964608
 45
0.18
292
     0
297
     0
 46
0.18
 94
-1056964608
 47
1.0
 49
1.0
140
1.0
293
     1
141
0.0
294
     1
177
     0
142
1.0
295
     0
296
     0
143
0.125
1001
ACAD_MLEADERVER
1070
     2
  0
MLINESTYLE
  5
18
102
{ACAD_REACTORS
330
17
102
}
330
17
100
AcDbMlineStyle
  2
STANDARD
 70
     0
  3

 62
   256
 51
90.0
 52
90.0
 71
     2
 49
0.5
 62
   256
  6
BYLAYER
 49
-0.5
 62
   256
  6
BYLAYER
  0
ACDBPLACEHOLDER
  5
F
102
{ACAD_REACTORS
330
E
102
}
330
E
  0
SCALE
  5
3C
102
{ACAD_REACTORS
330
3B
102
}
330
3B
100
AcDbScale
 70
     0
300
1:1
140
1.0
141
1.0
290
     1
  0
SCALE
  5
3D
102
{ACAD_REACTORS
330
3B
102
}
330
3B
100
AcDbScale
 70
     0
300
1:2
140
1.0
141
2.0
290
     0
  0
SCALE
  5
3E
102
{ACAD_REACTORS
330
3B
102
}
330
3B
100
AcDbScale
 70
     0
300
1:4
140
1.0
141
4.0
290
     0
  0
SCALE
  5
3F
102
{ACAD_REACTORS
330
3B
102
}
330
3B
100
AcDbScale
 70
     0
300
1:5
140
1.0
141
5.0
290
     0
  0
SCALE
  5
40
102
{ACAD_REACTORS
330
3B
102
}
330
3B
100
AcDbScale
 70
     0
300
1:8
140
1.0
141
8.0
290
     0
  0
SCALE
  5
41
102
{ACAD_REACTORS
330
3B
102
}
330
3B
100
AcDbScale
 70
     0
300
1:10
140
1.0
141
10.0
290
     0
  0
SCALE
  5
42
102
{ACAD_REACTORS
330
3B
102
}
330
3B
100
AcDbScale
 70
     0
300
1:16
140
1.0
141
16.0
290
     0
  0
SCALE
  5
43
102
{ACAD_REACTORS
330
3B
102
}
330
3B
100
AcDbScale
 70
     0
300
1:20
140
1.0
141
20.0
290
     0
  0
SCALE
  5
44
102
{ACAD_REACTORS
330
3B
102
}
330
3B
100
AcDbScale
 70
     0
300
1:30
140
1.0
141
30.0
290
     0
  0
SCALE
  5
45
102
{ACAD_REACTORS
330
3B
102
}
330
3B
100
AcDbScale
 70
     0
300
1:40
140
1.0
141
40.0
290
     0
  0
SCALE
  5
46
102
{ACAD_REACTORS
330
3B
102
}
330
3B
100
AcDbScale
 70
     0
300
1:50
140
1.0
141
50.0
290
     0
  0
SCALE
  5
47
102
{ACAD_REACTORS
330
3B
102
}
330
3B
100
AcDbScale
 70
     0
300
1:100
140
1.0
141
100.0
290
     0
  0
SCALE
  5
48
102
{ACAD_REACTORS
330
3B
102
}
330
3B
100
AcDbScale
 70
     0
300
2:1
140
2.0
141
1.0
290
     0
  0
SCALE
  5
49
102
{ACAD_REACTORS
330
3B
102
}
330
3B
100
AcDbScale
 70
     0
300
4:1
140
4.0
141
1.0
290
     0
  0
SCALE
  5
4A
102
{ACAD_REACTORS
330
3B
102
}
330
3B
100
AcDbScale
 70
     0
300
8:1
140
8.0
141
1.0
290
     0
  0
SCALE
  5
4B
102
{ACAD_REACTORS
330
3B
102
}
330
3B
100
AcDbScale
 70
     0
300
10:1
140
10.0
141
1.0
290
     0
  0
SCALE
  5
4C
102
{ACAD_REACTORS
330
3B
102
}
330
3B
100
AcDbScale
 70
     0
300
100:1
140
100.0
141
1.0
290
     0
  0
SCALE
  5
4D
102
{ACAD_REACTORS
330
3B
102
}
330
3B
100
AcDbScale
 70
     0
300
1/128" = 1'-0"
140
0.0078125
141
12.0
290
     0
  0
SCALE
  5
4E
102
{ACAD_REACTORS
330
3B
102
}
330
3B
100
AcDbScale
 70
     0
300
1/64" = 1'-0"
140
0.015625
141
12.0
290
     0
  0
SCALE
  5
4F
102
{ACAD_REACTORS
330
3B
102
}
330
3B
100
AcDbScale
 70
     0
300
1/32" = 1'-0"
140
0.03125
141
12.0
290
     0
  0
SCALE
  5
50
102
{ACAD_REACTORS
330
3B
102
}
330
3B
100
AcDbScale
 70
     0
300
1/16" = 1'-0"
140
0.0625
141
12.0
290
     0
  0
SCALE
  5
51
102
{ACAD_REACTORS
330
3B
102
}
330
3B
100
AcDbScale
 70
     0
300
3/32" = 1'-0"
140
0.09375
141
12.0
290
     0
  0
SCALE
  5
52
102
{ACAD_REACTORS
330
3B
102
}
330
3B
100
AcDbScale
 70
     0
300
1/8" = 1'-0"
140
0.125
141
12.0
290
     0
  0
SCALE
  5
53
102
{ACAD_REACTORS
330
3B
102
}
330
3B
100
AcDbScale
 70
     0
300
3/16" = 1'-0"
140
0.1875
141
12.0
290
     0
  0
SCALE
  5
54
102
{ACAD_REACTORS
330
3B
102
}
330
3B
100
AcDbScale
 70
     0
300
1/4" = 1'-0"
140
0.25
141
12.0
290
     0
  0
SCALE
  5
55
102
{ACAD_REACTORS
330
3B
102
}
330
3B
100
AcDbScale
 70
     0
300
3/8" = 1'-0"
140
0.375
141
12.0
290
     0
  0
SCALE
  5
56
102
{ACAD_REACTORS
330
3B
102
}
330
3B
100
AcDbScale
 70
     0
300
1/2" = 1'-0"
140
0.5
141
12.0
290
     0
  0
SCALE
  5
57
102
{ACAD_REACTORS
330
3B
102
}
330
3B
100
AcDbScale
 70
     0
300
3/4" = 1'-0"
140
0.75
141
12.0
290
     0
  0
SCALE
  5
58
102
{ACAD_REACTORS
330
3B
102
}
330
3B
100
AcDbScale
 70
     0
300
1" = 1'-0"
140
1.0
141
12.0
290
     0
  0
SCALE
  5
59
102
{ACAD_REACTORS
330
3B
102
}
330
3B
100
AcDbScale
 70
     0
300
1-1/2" = 1'-0"
140
1.5
141
12.0
290
     0
  0
SCALE
  5
5A
102
{ACAD_REACTORS
330
3B
102
}
330
3B
100
AcDbScale
 70
     0
300
3" = 1'-0"
140
3.0
141
12.0
290
     0
  0
SCALE
  5
5B
102
{ACAD_REACTORS
330
3B
102
}
330
3B
100
AcDbScale
 70
     0
300
6" = 1'-0"
140
6.0
141
12.0
290
     0
  0
SCALE
  5
5C
102
{ACAD_REACTORS
330
3B
102
}
330
3B
100
AcDbScale
 70
     0
300
1'-0" = 1'-0"
140
12.0
141
12.0
290
     0
  0
TABLESTYLE
  5
3E4
102
{ACAD_XDICTIONARY
360
3F2
102
}
102
{ACAD_REACTORS
330
3C7
102
}
330
3C7
100
AcDbTableStyle
  3
Standard
 70
     0
 71
     0
 40
0.06
 41
0.06
280
     0
281
     0
  7
Standard
140
0.18
170
     2
 62
     0
 63
     7
283
     0
274
    -2
284
     1
 64
     0
275
    -2
285
     1
 65
     0
276
    -2
286
     1
 66
     0
277
    -2
287
     1
 67
     0
278
    -2
288
     1
 68
     0
279
    -2
289
     1
 69
     0
  7
Standard
140
0.25
170
     5
 62
     0
 63
     7
283
     0
274
    -2
284
     1
 64
     0
275
    -2
285
     1
 65
     0
276
    -2
286
     1
 66
     0
277
    -2
287
     1
 67
     0
278
    -2
288
     1
 68
     0
279
    -2
289
     1
 69
     0
  7
Standard
140
0.18
170
     5
 62
     0
 63
     7
283
     0
274
    -2
284
     1
 64
     0
275
    -2
285
     1
 65
     0
276
    -2
286
     1
 66
     0
277
    -2
287
     1
 67
     0
278
    -2
288
     1
 68
     0
279
    -2
289
     1
 69
     0
  0
VISUALSTYLE
  5
2F
102
{ACAD_REACTORS
330
2A
102
}
330
2A
100
AcDbVisualStyle
  2
2dWireframe
 70
     4
 71
     0
 72
     2
 73
     0
 90
        0
 40
-0.6
 41
-30.0
 62
     5
 63
     7
 74
     1
 91
        4
 64
     7
 65
   257
 75
     1
175
     1
 42
1.0
 92
        0
 66
   257
 43
1.0
 76
     1
 77
     6
 78
     2
 67
     7
 79
     5
170
     0
171
     0
290
     0
174
     0
 93
        1
 44
0.0
173
     0
291
     0
 45
0.0
1001
ACAD
1000
AcDbSavedByObjectVersion
1070
     0
  0
VISUALSTYLE
  5
31
102
{ACAD_REACTORS
330
2A
102
}
330
2A
100
AcDbVisualStyle
  2
3D Hidden
 70
     6
 71
     1
 72
     2
 73
     2
 90
        0
 40
-0.6
 41
-30.0
 62
     5
 63
     7
 74
     2
 91
        2
 64
     7
 65
   257
 75
     2
175
     1
 42
40.0
 92
        0
 66
   257
 43
1.0
 76
     1
 77
     6
 78
     2
 67
     7
 79
     3
170
     0
171
     0
290
     0
174
     0
 93
        1
 44
0.0
173
     0
291
     0
 45
0.0
1001
ACAD
1000
AcDbSavedByObjectVersion
1070
     0
  0
VISUALSTYLE
  5
30
102
{ACAD_REACTORS
330
2A
102
}
330
2A
100
AcDbVisualStyle
  2
3dWireframe
 70
     5
 71
     0
 72
     2
 73
     0
 90
        0
 40
-0.6
 41
-30.0
 62
     5
 63
     7
 74
     1
 91
        4
 64
     7
 65
   257
 75
     1
175
     1
 42
1.0
 92
        0
 66
   257
 43
1.0
 76
     1
 77
     6
 78
     2
 67
     7
 79
     5
170
     0
171
     0
290
     0
174
     0
 93
        1
 44
0.0
173
     0
291
     0
 45
0.0
1001
ACAD
1000
AcDbSavedByObjectVersion
1070
     0
  0
VISUALSTYLE
  5
32
102
{ACAD_REACTORS
330
2A
102
}
330
2A
100
AcDbVisualStyle
  2
Basic
 70
     7
 71
     1
 72
     0
 73
     1
 90
        0
 40
-0.6
 41
-30.0
 62
     5
 63
     7
 74
     0
 91
        4
 64
     7
 65
   257
 75
     1
175
     1
 42
1.0
 92
        8
 66
     7
 43
1.0
 76
     1
 77
     6
 78
     2
 67
     7
 79
     5
170
     0
171
     0
290
     0
174
     0
 93
        1
 44
0.0
173
     0
291
     1
 45
0.0
1001
ACAD
1000
AcDbSavedByObjectVersion
1070
     0
  0
VISUALSTYLE
  5
36
102
{ACAD_REACTORS
330
2A
102
}
330
2A
100
AcDbVisualStyle
  2
Brighten
 70
    12
 71
     2
 72
     2
 73
     0
 90
        0
 40
-0.6
 41
-30.0
 62
     5
 63
     7
 74
     1
 91
        4
 64
     7
 65
   257
 75
     1
175
     1
 42
1.0
 92
        8
 66
     7
 43
1.0
 76
     1
 77
     6
 78
     2
 67
     7
 79
     5
170
     0
171
     0
290
     0
174
     0
 93
        1
 44
50.0
173
     0
291
     1
 45
0.0
1001
ACAD
1000
AcDbSavedByObjectVersion
1070
     0
  0
VISUALSTYLE
  5
3A
102
{ACAD_REACTORS
330
2A
102
}
330
2A
100
AcDbVisualStyle
  2
ColorChange
 70
    16
 71
     2
 72
     2
 73
     3
 90
        0
 40
-0.6
 41
-30.0
 62
     5
 63
     8
 74
     1
 91
        4
 64
     7
 65
   257
 75
     1
175
     1
 42
1.0
 92
        8
 66
     8
 43
1.0
 76
     1
 77
     6
 78
     2
 67
     7
 79
     5
170
     0
171
     0
290
     0
174
     0
 93
        1
 44
0.0
173
     0
291
     1
 45
0.0
1001
ACAD
1000
AcDbSavedByObjectVersion
1070
     0
  0
VISUALSTYLE
  5
34
102
{ACAD_REACTORS
330
2A
102
}
330
2A
100
AcDbVisualStyle
  2
Conceptual
 70
     9
 71
     3
 72
     2
 73
     0
 90
        0
 40
-0.6
 41
-30.0
 62
     5
 63
     7
 74
     2
 91
        2
 64
     7
 65
   257
 75
     1
175
     1
 42
40.0
 92
        8
 66
     7
 43
1.0
 76
     1
 77
     6
 78
     2
 67
     7
 79
     3
170
     0
171
     0
290
     0
174
     0
 93
        1
 44
0.0
173
     0
291
     0
 45
0.0
1001
ACAD
1000
AcDbSavedByObjectVersion
1070
     0
  0
VISUALSTYLE
  5
35
102
{ACAD_REACTORS
330
2A
102
}
330
2A
100
AcDbVisualStyle
  2
Dim
 70
    11
 71
     2
 72
     2
 73
     0
 90
        0
 40
-0.6
 41
-30.0
 62
     5
 63
     7
 74
     1
 91
        4
 64
     7
 65
   257
 75
     1
175
     1
 42
1.0
 92
        8
 66
     7
 43
1.0
 76
     1
 77
     6
 78
     2
 67
     7
 79
     5
170
     0
171
     0
290
     0
174
     0
 93
        1
 44
-50.0
173
     0
291
     1
 45
0.0
1001
ACAD
1000
AcDbSavedByObjectVersion
1070
     0
  0
VISUALSTYLE
  5
39
102
{ACAD_REACTORS
330
2A
102
}
330
2A
100
AcDbVisualStyle
  2
Facepattern
 70
    15
 71
     2
 72
     2
 73
     0
 90
        0
 40
-0.6
 41
-30.0
 62
     5
 63
     7
 74
     1
 91
        4
 64
     7
 65
   257
 75
     1
175
     1
 42
1.0
 92
        8
 66
     7
 43
1.0
 76
     1
 77
     6
 78
     2
 67
     7
 79
     5
170
     0
171
     0
290
     0
174
     0
 93
        1
 44
0.0
173
     0
291
     1
 45
0.0
1001
ACAD
1000
AcDbSavedByObjectVersion
1070
     0
  0
VISUALSTYLE
  5
2B
102
{ACAD_REACTORS
330
2A
102
}
330
2A
100
AcDbVisualStyle
  2
Flat
 70
     0
 71
     2
 72
     1
 73
     1
 90
        2
 40
-0.6
 41
30.0
 62
     5
 63
     7
 74
     0
 91
        4
 64
     7
 65
   257
 75
     1
175
     1
 42
1.0
 92
        8
 66
     7
 43
1.0
 76
     1
 77
     6
 78
     2
 67
     7
 79
     5
170
     0
171
     0
290
     0
174
     0
 93
       13
 44
0.0
173
     0
291
     1
 45
0.0
1001
ACAD
1000
AcDbSavedByObjectVersion
1070
     0
  0
VISUALSTYLE
  5
2C
102
{ACAD_REACTORS
330
2A
102
}
330
2A
100
AcDbVisualStyle
  2
FlatWithEdges
 70
     1
 71
     2
 72
     1
 73
     1
 90
        2
 40
-0.6
 41
30.0
 62
     5
 63
     7
 74
     1
 91
        4
 64
     7
 65
   257
 75
     1
175
     1
 42
1.0
 92
        0
 66
   257
 43
1.0
 76
     1
 77
     6
 78
     2
 67
     7
 79
     5
170
     0
171
     0
290
     0
174
     0
 93
       13
 44
0.0
173
     0
291
     1
 45
0.0
1001
ACAD
1000
AcDbSavedByObjectVersion
1070
     0
  0
VISUALSTYLE
  5
2D
102
{ACAD_REACTORS
330
2A
102
}
330
2A
100
AcDbVisualStyle
  2
Gouraud
 70
     2
 71
     2
 72
     2
 73
     1
 90
        2
 40
-0.6
 41
30.0
 62
     5
 63
     7
 74
     0
 91
        4
 64
     7
 65
   257
 75
     1
175
     1
 42
1.0
 92
        0
 66
     7
 43
1.0
 76
     1
 77
     6
 78
     2
 67
     7
 79
     5
170
     0
171
     0
290
     0
174
     0
 93
       13
 44
0.0
173
     0
291
     1
 45
0.0
1001
ACAD
1000
AcDbSavedByObjectVersion
1070
     0
  0
VISUALSTYLE
  5
2E
102
{ACAD_REACTORS
330
2A
102
}
330
2A
100
AcDbVisualStyle
  2
GouraudWithEdges
 70
     3
 71
     2
 72
     2
 73
     1
 90
        2
 40
-0.6
 41
30.0
 62
     5
 63
     7
 74
     1
 91
        4
 64
     7
 65
   257
 75
     1
175
     1
 42
1.0
 92
        0
 66
   257
 43
1.0
 76
     1
 77
     6
 78
     2
 67
     7
 79
     5
170
     0
171
     0
290
     0
174
     0
 93
       13
 44
0.0
173
     0
291
     1
 45
0.0
1001
ACAD
1000
AcDbSavedByObjectVersion
1070
     0
  0
VISUALSTYLE
  5
38
102
{ACAD_REACTORS
330
2A
102
}
330
2A
100
AcDbVisualStyle
  2
Linepattern
 70
    14
 71
     2
 72
     2
 73
     0
 90
        0
 40
-0.6
 41
-30.0
 62
     5
 63
     7
 74
     1
 91
        4
 64
     7
 65
   257
 75
     7
175
     7
 42
1.0
 92
        8
 66
     7
 43
1.0
 76
     1
 77
     6
 78
     2
 67
     7
 79
     5
170
     0
171
     0
290
     0
174
     0
 93
        1
 44
0.0
173
     0
291
     1
 45
0.0
1001
ACAD
1000
AcDbSavedByObjectVersion
1070
     0
  0
VISUALSTYLE
  5
33
102
{ACAD_REACTORS
330
2A
102
}
330
2A
100
AcDbVisualStyle
  2
Realistic
 70
     8
 71
     2
 72
     2
 73
     0
 90
        0
 40
-0.6
 41
-30.0
 62
     5
 63
     7
 74
     1
 91
        0
 64
     7
 65
   257
 75
     1
175
     1
 42
1.0
 92
        8
 66
     8
 43
1.0
 76
     1
 77
     6
 78
     2
 67
     7
 79
     5
170
     0
171
     0
290
     0
174
     0
 93
       13
 44
0.0
173
     0
291
     0
 45
0.0
1001
ACAD
1000
AcDbSavedByObjectVersion
1070
     0
  0
VISUALSTYLE
  5
37
102
{ACAD_REACTORS
330
2A
102
}
330
2A
100
AcDbVisualStyle
  2
Thicken
 70
    13
 71
     2
 72
     2
 73
     0
 90
        0
 40
-0.6
 41
-30.0
 62
     5
 63
     7
 74
     1
 91
        4
 64
     7
 65
   257
 75
     1
175
     1
 42
1.0
 92
       12
 66
     7
 43
1.0
 76
     1
 77
     6
 78
     2
 67
     7
 79
     5
170
     0
171
     0
290
     0
174
     0
 93
        1
 44
0.0
173
     0
291
     1
 45
0.0
1001
ACAD
1000
AcDbSavedByObjectVersion
1070
     0
  0
DICTIONARYVAR
  5
3C6
102
{ACAD_REACTORS
330
3C5
102
}
330
3C5
100
DictionaryVariables
280
     0
  1
1:1
  0
DICTIONARYVAR
  5
3EE
102
{ACAD_REACTORS
330
3C5
102
}
330
3C5
100
DictionaryVariables
280
     0
  1
STANDARD
  0
DICTIONARYVAR
  5
3ED
102
{ACAD_REACTORS
330
3C5
102
}
330
3C5
100
DictionaryVariables
280
     0
  1
STANDARD
  0
DICTIONARYVAR
  5
3F1
102
{ACAD_REACTORS
330
3C5
102
}
330
3C5
100
DictionaryVariables
280
     0
  1
1
  0
DICTIONARYVAR
  5
3F0
102
{ACAD_REACTORS
330
3C5
102
}
330
3C5
100
DictionaryVariables
280
     0
  1
0
  0
DICTIONARYVAR
  5
3EF
102
{ACAD_REACTORS
330
3C5
102
}
330
3C5
100
DictionaryVariables
280
     0
  1
127
  0
DICTIONARY
  5
3F6
330
1E
100
AcDbDictionary
280
     1
281
     1
  3
ACAD_XREC_ROUNDTRIP
360
3F7
  0
DICTIONARY
  5
3FA
330
26
100
AcDbDictionary
280
     1
281
     1
  3
ACAD_XREC_ROUNDTRIP
360
3FB
  0
DICTIONARY
  5
3F8
330
22
100
AcDbDictionary
280
     1
281
     1
  3
ACAD_XREC_ROUNDTRIP
360
3F9
  0
DICTIONARY
  5
3D4
330
3D3
100
AcDbDictionary
280
     1
281
     1
  3
ACAD_XREC_ROUNDTRIP
360
3FD
  3
BUMPTILE
360
3D6
  3
DIFFUSETILE
360
3D5
  3
OPACITYTILE
360
3D9
  3
REFLECTIONTILE
360
3D8
  3
REFRACTIONTILE
360
3DA
  3
SPECULARTILE
360
3D7
  0
DICTIONARY
  5
3CC
330
3CB
100
AcDbDictionary
280
     1
281
     1
  3
ACAD_XREC_ROUNDTRIP
360
3FC
  3
BUMPTILE
360
3CE
  3
DIFFUSETILE
360
3CD
  3
OPACITYTILE
360
3D1
  3
REFLECTIONTILE
360
3D0
  3
REFRACTIONTILE
360
3D2
  3
SPECULARTILE
360
3CF
  0
DICTIONARY
  5
3DC
330
3DB
100
AcDbDictionary
280
     1
281
     1
  3
ACAD_XREC_ROUNDTRIP
360
3FE
  3
BUMPTILE
360
3DE
  3
DIFFUSETILE
360
3DD
  3
OPACITYTILE
360
3E1
  3
REFLECTIONTILE
360
3E0
  3
REFRACTIONTILE
360
3E2
  3
SPECULARTILE
360
3DF
  0
DICTIONARY
  5
3F2
330
3E4
100
AcDbDictionary
280
     1
281
     1
  3
ACAD_ROUNDTRIP_2008_TABLESTYLE_CELLSTYLEMAP
360
3F3
  3
ACAD_XREC_ROUNDTRIP
360
3FF
  0
XRECORD
  5
3F7
102
{ACAD_REACTORS
330
3F6
102
}
330
3F6
100
AcDbXrecord
280
     1
102
SHADEPLOT
 70
     0
102
SHADEPLOTRESLEVEL
 70
     2
102
SHADEPLOTCUSTOMDPI
 70
   300
  0
XRECORD
  5
3FB
102
{ACAD_REACTORS
330
3FA
102
}
330
3FA
100
AcDbXrecord
280
     1
102
SHADEPLOT
 70
     0
102
SHADEPLOTRESLEVEL
 70
     2
102
SHADEPLOTCUSTOMDPI
 70
   300
  0
XRECORD
  5
3F9
102
{ACAD_REACTORS
330
3F8
102
}
330
3F8
100
AcDbXrecord
280
     1
102
SHADEPLOT
 70
     0
102
SHADEPLOTRESLEVEL
 70
     2
102
SHADEPLOTCUSTOMDPI
 70
   300
  0
XRECORD
  5
3FD
102
{ACAD_REACTORS
330
3D4
102
}
330
3D4
100
AcDbXrecord
280
     1
102
MATERIAL
148
0.0
149
0.0
149
0.0
 93
        0
 94
      127
282
     0
 72
     0
 77
     0
171
     0
175
     0
179
     0
273
     0
  0
XRECORD
  5
3D6
102
{ACAD_REACTORS
330
3D4
102
}
330
3D4
100
AcDbXrecord
280
     1
270
     1
271
     1
  0
XRECORD
  5
3D5
102
{ACAD_REACTORS
330
3D4
102
}
330
3D4
100
AcDbXrecord
280
     1
270
     1
271
     1
  0
XRECORD
  5
3D9
102
{ACAD_REACTORS
330
3D4
102
}
330
3D4
100
AcDbXrecord
280
     1
270
     1
271
     1
  0
XRECORD
  5
3D8
102
{ACAD_REACTORS
330
3D4
102
}
330
3D4
100
AcDbXrecord
280
     1
270
     1
271
     1
  0
XRECORD
  5
3DA
102
{ACAD_REACTORS
330
3D4
102
}
330
3D4
100
AcDbXrecord
280
     1
270
     1
271
     1
  0
XRECORD
  5
3D7
102
{ACAD_REACTORS
330
3D4
102
}
330
3D4
100
AcDbXrecord
280
     1
270
     1
271
     1
  0
XRECORD
  5
3FC
102
{ACAD_REACTORS
330
3CC
102
}
330
3CC
100
AcDbXrecord
280
     1
102
MATERIAL
148
0.0
149
0.0
149
0.0
 93
        0
 94
      127
282
     0
 72
     0
 77
     0
171
     0
175
     0
179
     0
273
     0
  0
XRECORD
  5
3CE
102
{ACAD_REACTORS
330
3CC
102
}
330
3CC
100
AcDbXrecord
280
     1
270
     1
271
     1
  0
XRECORD
  5
3CD
102
{ACAD_REACTORS
330
3CC
102
}
330
3CC
100
AcDbXrecord
280
     1
270
     1
271
     1
  0
XRECORD
  5
3D1
102
{ACAD_REACTORS
330
3CC
102
}
330
3CC
100
AcDbXrecord
280
     1
270
     1
271
     1
  0
XRECORD
  5
3D0
102
{ACAD_REACTORS
330
3CC
102
}
330
3CC
100
AcDbXrecord
280
     1
270
     1
271
     1
  0
XRECORD
  5
3D2
102
{ACAD_REACTORS
330
3CC
102
}
330
3CC
100
AcDbXrecord
280
     1
270
     1
271
     1
  0
XRECORD
  5
3CF
102
{ACAD_REACTORS
330
3CC
102
}
330
3CC
100
AcDbXrecord
280
     1
270
     1
271
     1
  0
XRECORD
  5
3FE
102
{ACAD_REACTORS
330
3DC
102
}
330
3DC
100
AcDbXrecord
280
     1
102
MATERIAL
148
0.0
149
0.0
149
0.0
 93
        0
 94
      127
282
     0
 72
     0
 77
     0
171
     0
175
     0
179
     0
273
     0
  0
XRECORD
  5
3DE
102
{ACAD_REACTORS
330
3DC
102
}
330
3DC
100
AcDbXrecord
280
     1
270
     1
271
     1
  0
XRECORD
  5
3DD
102
{ACAD_REACTORS
330
3DC
102
}
330
3DC
100
AcDbXrecord
280
     1
270
     1
271
     1
  0
XRECORD
  5
3E1
102
{ACAD_REACTORS
330
3DC
102
}
330
3DC
100
AcDbXrecord
280
     1
270
     1
271
     1
  0
XRECORD
  5
3E0
102
{ACAD_REACTORS
330
3DC
102
}
330
3DC
100
AcDbXrecord
280
     1
270
     1
271
     1
  0
XRECORD
  5
3E2
102
{ACAD_REACTORS
330
3DC
102
}
330
3DC
100
AcDbXrecord
280
     1
270
     1
271
     1
  0
XRECORD
  5
3DF
102
{ACAD_REACTORS
330
3DC
102
}
330
3DC
100
AcDbXrecord
280
     1
270
     1
271
     1
  0
CELLSTYLEMAP
  5
3F3
102
{ACAD_REACTORS
330
3F2
102
}
330
3F2
100
AcDbCellStyleMap
 90
        3
300
CELLSTYLE
  1
TABLEFORMAT_BEGIN
 90
        5
170
     1
 91
        0
 92
    32768
 62
   257
 93
        1
300
CONTENTFORMAT
  1
CONTENTFORMAT_BEGIN
 90
        0
 91
        0
 92
      512
 93
        0
300

 40
0.0
140
1.0
 94
        5
 62
     0
340
11
144
0.25
309
CONTENTFORMAT_END
171
     0
 94
        0
309
TABLEFORMAT_END
  1
CELLSTYLE_BEGIN
 90
        1
 91
        1
300
_TITLE
309
CELLSTYLE_END
300
CELLSTYLE
  1
TABLEFORMAT_BEGIN
 90
        5
170
     1
 91
        0
 92
        0
 62
   257
 93
        1
300
CONTENTFORMAT
  1
CONTENTFORMAT_BEGIN
 90
        0
 91
        0
 92
      512
 93
        0
300

 40
0.0
140
1.0
 94
        5
 62
     0
340
11
144
0.18
309
CONTENTFORMAT_END
171
     0
 94
        0
309
TABLEFORMAT_END
  1
CELLSTYLE_BEGIN
 90
        2
 91
        1
300
_HEADER
309
CELLSTYLE_END
300
CELLSTYLE
  1
TABLEFORMAT_BEGIN
 90
        5
170
     1
 91
        0
 92
        0
 62
   257
 93
        1
300
CONTENTFORMAT
  1
CONTENTFORMAT_BEGIN
 90
        0
 91
        0
 92
      512
 93
        0
300

 40
0.0
140
1.0
 94
        2
 62
     0
340
11
144
0.18
309
CONTENTFORMAT_END
171
     0
 94
        0
309
TABLEFORMAT_END
  1
CELLSTYLE_BEGIN
 90
        3
 91
        2
300
_DATA
309
CELLSTYLE_END
  0
XRECORD
  5
3FF
102
{ACAD_REACTORS
330
3F2
102
}
330
3F2
100
AcDbXrecord
280
     1
102
ACAD_ROUNDTRIP_PRE2007_TABLESTYLE
 90
      512
 91
        0
  1

 92
      512
 93
        0
  2

 94
      512
 95
        0
  3

  0
ENDSEC
  0
EOF
