  0
SECTION
  2
HEADER
  9
$ACADVER
  1
AC1015
  9
$ACADMAINTVER
 70
    20
  9
$DWGCODEPAGE
  3
ANSI_1252
  9
$INSBASE
 10
0.0
 20
0.0
 30
0.0
  9
$EXTMIN
 10
1.919944785209306
 20
3.546264678177269
 30
-0.0015258207003583
  9
$EXTMAX
 10
6.47175599887473
 20
12.36996462681559
 30
0.0000000349246037
  9
$LIMMIN
 10
0.0
 20
0.0
  9
$LIMMAX
 10
8.5
 20
11.0
  9
$ORTHOMODE
 70
     1
  9
$REGENMODE
 70
     1
  9
$FILLMODE
 70
     1
  9
$QTEXTMODE
 70
     0
  9
$MIRRTEXT
 70
     1
  9
$LTSCALE
 40
1.0
  9
$ATTMODE
 70
     1
  9
$TEXTSIZE
 40
0.2
  9
$TRACEWID
 40
0.05
  9
$TEXTSTYLE
  7
Standard
  9
$CLAYER
  8
0
  9
$CELTYPE
  6
ByLayer
  9
$CECOLOR
 62
   256
  9
$CELTSCALE
 40
1.0
  9
$DISPSILH
 70
     0
  9
$DIMSCALE
 40
1.0
  9
$DIMASZ
 40
0.12
  9
$DIMEXO
 40
0.0625
  9
$DIMDLI
 40
0.38
  9
$DIMRND
 40
0.0
  9
$DIMDLE
 40
0.0
  9
$DIMEXE
 40
0.125
  9
$DIMTP
 40
0.0
  9
$DIMTM
 40
0.0
  9
$DIMTXT
 40
0.1666666666666666
  9
$DIMCEN
 40
0.09
  9
$DIMTSZ
 40
0.0
  9
$DIMTOL
 70
     0
  9
$DIMLIM
 70
     0
  9
$DIMTIH
 70
     1
  9
$DIMTOH
 70
     1
  9
$DIMSE1
 70
     0
  9
$DIMSE2
 70
     0
  9
$DIMTAD
 70
     0
  9
$DIMZIN
 70
     0
  9
$DIMBLK
  1

  9
$DIMASO
 70
     1
  9
$DIMSHO
 70
     1
  9
$DIMPOST
  1

  9
$DIMAPOST
  1

  9
$DIMALT
 70
     0
  9
$DIMALTD
 70
     2
  9
$DIMALTF
 40
25.4
  9
$DIMLFAC
 40
8.0
  9
$DIMTOFL
 70
     0
  9
$DIMTVP
 40
0.0
  9
$DIMTIX
 70
     0
  9
$DIMSOXD
 70
     0
  9
$DIMSAH
 70
     0
  9
$DIMBLK1
  1

  9
$DIMBLK2
  1

  9
$DIMSTYLE
  2
Standard
  9
$DIMCLRD
 70
     0
  9
$DIMCLRE
 70
     0
  9
$DIMCLRT
 70
     0
  9
$DIMTFAC
 40
1.0
  9
$DIMGAP
 40
0.06
  9
$DIMJUST
 70
     0
  9
$DIMSD1
 70
     0
  9
$DIMSD2
 70
     0
  9
$DIMTOLJ
 70
     1
  9
$DIMTZIN
 70
     0
  9
$DIMALTZ
 70
     0
  9
$DIMALTTZ
 70
     0
  9
$DIMUPT
 70
     0
  9
$DIMDEC
 70
     4
  9
$DIMTDEC
 70
     4
  9
$DIMALTU
 70
     2
  9
$DIMALTTD
 70
     2
  9
$DIMTXSTY
  7
Standard
  9
$DIMAUNIT
 70
     0
  9
$DIMADEC
 70
     0
  9
$DIMALTRND
 40
0.0
  9
$DIMAZIN
 70
     0
  9
$DIMDSEP
 70
    46
  9
$DIMATFIT
 70
     3
  9
$DIMFRAC
 70
     0
  9
$DIMLDRBLK
  1

  9
$DIMLUNIT
 70
     2
  9
$DIMLWD
 70
    -2
  9
$DIMLWE
 70
    -2
  9
$DIMTMOVE
 70
     0
  9
$LUNITS
 70
     2
  9
$LUPREC
 70
     2
  9
$SKETCHINC
 40
0.1
  9
$FILLETRAD
 40
0.5
  9
$AUNITS
 70
     0
  9
$AUPREC
 70
     0
  9
$MENU
  1
.
  9
$ELEVATION
 40
0.0
  9
$PELEVATION
 40
0.0
  9
$THICKNESS
 40
0.0
  9
$LIMCHECK
 70
     0
  9
$CHAMFERA
 40
0.5
  9
$CHAMFERB
 40
0.5
  9
$CHAMFERC
 40
1.0
  9
$CHAMFERD
 40
0.0
  9
$SKPOLY
 70
     0
  9
$TDCREATE
 40
2455397.666050163
  9
$TDUCREATE
 40
2455397.874383495
  9
$TDUPDATE
 40
2455397.667237766
  9
$TDUUPDATE
 40
2455397.875571100
  9
$TDINDWG
 40
0.0008675231
  9
$TDUSRTIMER
 40
0.0008675231
  9
$USRTIMER
 70
     1
  9
$ANGBASE
 50
0.0
  9
$ANGDIR
 70
     0
  9
$PDMODE
 70
     0
  9
$PDSIZE
 40
-1.0
  9
$PLINEWID
 40
0.0
  9
$SPLFRAME
 70
     0
  9
$SPLINETYPE
 70
     6
  9
$SPLINESEGS
 70
     8
  9
$HANDSEED
  5
3CE
  9
$SURFTAB1
 70
     6
  9
$SURFTAB2
 70
     6
  9
$SURFTYPE
 70
     6
  9
$SURFU
 70
     6
  9
$SURFV
 70
     6
  9
$UCSBASE
  2

  9
$UCSNAME
  2

  9
$UCSORG
 10
0.0
 20
0.0
 30
0.0
  9
$UCSXDIR
 10
1.0
 20
0.0
 30
0.0
  9
$UCSYDIR
 10
0.0
 20
1.0
 30
0.0
  9
$UCSORTHOREF
  2

  9
$UCSORTHOVIEW
 70
     0
  9
$UCSORGTOP
 10
0.0
 20
0.0
 30
0.0
  9
$UCSORGBOTTOM
 10
0.0
 20
0.0
 30
0.0
  9
$UCSORGLEFT
 10
0.0
 20
0.0
 30
0.0
  9
$UCSORGRIGHT
 10
0.0
 20
0.0
 30
0.0
  9
$UCSORGFRONT
 10
0.0
 20
0.0
 30
0.0
  9
$UCSORGBACK
 10
0.0
 20
0.0
 30
0.0
  9
$PUCSBASE
  2

  9
$PUCSNAME
  2

  9
$PUCSORG
 10
0.0
 20
0.0
 30
0.0
  9
$PUCSXDIR
 10
1.0
 20
0.0
 30
0.0
  9
$PUCSYDIR
 10
0.0
 20
1.0
 30
0.0
  9
$PUCSORTHOREF
  2

  9
$PUCSORTHOVIEW
 70
     0
  9
$PUCSORGTOP
 10
0.0
 20
0.0
 30
0.0
  9
$PUCSORGBOTTOM
 10
0.0
 20
0.0
 30
0.0
  9
$PUCSORGLEFT
 10
0.0
 20
0.0
 30
0.0
  9
$PUCSORGRIGHT
 10
0.0
 20
0.0
 30
0.0
  9
$PUCSORGFRONT
 10
0.0
 20
0.0
 30
0.0
  9
$PUCSORGBACK
 10
0.0
 20
0.0
 30
0.0
  9
$USERI1
 70
     0
  9
$USERI2
 70
     0
  9
$USERI3
 70
     0
  9
$USERI4
 70
     0
  9
$USERI5
 70
     0
  9
$USERR1
 40
0.0
  9
$USERR2
 40
0.0
  9
$USERR3
 40
0.0
  9
$USERR4
 40
0.0
  9
$USERR5
 40
0.0
  9
$WORLDVIEW
 70
     1
  9
$SHADEDGE
 70
     3
  9
$SHADEDIF
 70
    70
  9
$TILEMODE
 70
     1
  9
$MAXACTVP
 70
    64
  9
$PINSBASE
 10
0.0
 20
0.0
 30
0.0
  9
$PLIMCHECK
 70
     0
  9
$PEXTMIN
 10
1.000000000000000E+20
 20
1.000000000000000E+20
 30
1.000000000000000E+20
  9
$PEXTMAX
 10
-1.000000000000000E+20
 20
-1.000000000000000E+20
 30
-1.000000000000000E+20
  9
$PLIMMIN
 10
0.0
 20
0.0
  9
$PLIMMAX
 10
12.0
 20
9.0
  9
$UNITMODE
 70
     0
  9
$VISRETAIN
 70
     1
  9
$PLINEGEN
 70
     0
  9
$PSLTSCALE
 70
     1
  9
$TREEDEPTH
 70
  3020
  9
$CMLSTYLE
  2
Standard
  9
$CMLJUST
 70
     0
  9
$CMLSCALE
 40
1.0
  9
$PROXYGRAPHICS
 70
     1
  9
$MEASUREMENT
 70
     0
  9
$CELWEIGHT
370
    -1
  9
$ENDCAPS
280
     0
  9
$JOINSTYLE
280
     0
  9
$LWDISPLAY
290
     1
  9
$INSUNITS
 70
     1
  9
$HYPERLINKBASE
  1

  9
$STYLESHEET
  1

  9
$XEDIT
290
     1
  9
$CEPSNTYPE
380
     0
  9
$PSTYLEMODE
290
     1
  9
$FINGERPRINTGUID
  2
{B304C3E0-3234-4401-9A44-907840DA56B4}
  9
$VERSIONGUID
  2
{6440DE53-55E1-418A-A287-82969956B0F4}
  9
$EXTNAMES
290
     1
  9
$PSVPSCALE
 40
0.0
  9
$OLESTARTUP
290
     0
  0
ENDSEC
  0
SECTION
  2
CLASSES
  0
CLASS
  1
ACDBDICTIONARYWDFLT
  2
AcDbDictionaryWithDefault
  3
ObjectDBX Classes
 90
        0
280
     0
281
     0
  0
CLASS
  1
VISUALSTYLE
  2
AcDbVisualStyle
  3
ObjectDBX Classes
 90
     4095
280
     0
281
     0
  0
CLASS
  1
SCALE
  2
AcDbScale
  3
ObjectDBX Classes
 90
     1153
280
     0
281
     0
  0
CLASS
  1
DICTIONARYVAR
  2
AcDbDictionaryVar
  3
ObjectDBX Classes
 90
        0
280
     0
281
     0
  0
CLASS
  1
ACDBPLACEHOLDER
  2
AcDbPlaceHolder
  3
ObjectDBX Classes
 90
        0
280
     0
281
     0
  0
CLASS
  1
LAYOUT
  2
AcDbLayout
  3
ObjectDBX Classes
 90
        0
280
     0
281
     0
  0
CLASS
  1
MATERIAL
  2
AcDbMaterial
  3
ObjectDBX Classes
 90
     1153
280
     0
281
     0
  0
CLASS
  1
TABLESTYLE
  2
AcDbTableStyle
  3
ObjectDBX Classes
 90
     4095
280
     0
281
     0
  0
CLASS
  1
MLEADERSTYLE
  2
AcDbMLeaderStyle
  3
ACDB_MLEADERSTYLE_CLASS
 90
     4095
280
     0
281
     0
  0
CLASS
  1
CELLSTYLEMAP
  2
AcDbCellStyleMap
  3
ObjectDBX Classes
 90
     1152
280
     0
281
     0
  0
ENDSEC
  0
SECTION
  2
TABLES
  0
TABLE
  2
VPORT
  5
8
330
0
100
AcDbSymbolTable
 70
     1
  0
VPORT
  5
29
330
8
100
AcDbSymbolTableRecord
100
AcDbViewportTableRecord
  2
*Active
 70
     0
 10
0.0
 20
0.0
 11
1.0
 21
1.0
 12
4.586757265024296
 22
7.9035408226684
 13
0.0
 23
0.0
 14
0.5
 24
0.5
 15
0.5
 25
0.5
 16
0.0
 26
0.0
 36
1.0
 17
0.0
 27
0.0
 37
0.0
 40
9.974217737697074
 41
1.427771556550951
 42
50.0
 43
0.0
 44
0.0
 50
0.0
 51
0.0
 71
     0
 72
  2000
 73
     1
 74
     2
 75
     0
 76
     0
 77
     0
 78
     0
281
     0
 65
     1
110
0.0
120
0.0
130
0.0
111
1.0
121
0.0
131
0.0
112
0.0
122
1.0
132
0.0
 79
     0
146
0.0
  0
ENDTAB
  0
TABLE
  2
LTYPE
  5
5
330
0
100
AcDbSymbolTable
 70
     6
  0
LTYPE
  5
14
330
5
100
AcDbSymbolTableRecord
100
AcDbLinetypeTableRecord
  2
ByBlock
 70
     0
  3

 72
    65
 73
     0
 40
0.0
  0
LTYPE
  5
15
330
5
100
AcDbSymbolTableRecord
100
AcDbLinetypeTableRecord
  2
ByLayer
 70
     0
  3

 72
    65
 73
     0
 40
0.0
  0
LTYPE
  5
16
330
5
100
AcDbSymbolTableRecord
100
AcDbLinetypeTableRecord
  2
Continuous
 70
     0
  3
Solid line
 72
    65
 73
     0
 40
0.0
  0
LTYPE
  5
5D
330
5
100
AcDbSymbolTableRecord
100
AcDbLinetypeTableRecord
  2
HIDDEN
 70
     0
  3
Hidden __ __ __ __ __ __ __ __ __ __ __ __ __ __
 72
    65
 73
     2
 40
0.075
 49
0.05
 74
     0
 49
-0.025
 74
     0
  0
LTYPE
  5
5E
330
5
100
AcDbSymbolTableRecord
100
AcDbLinetypeTableRecord
  2
PHANTOM
 70
     0
  3
Phantom ______  __  __  ______  __  __  ______
 72
    65
 73
     6
 40
0.5
 49
0.25
 74
     0
 49
-0.05
 74
     0
 49
0.05
 74
     0
 49
-0.05
 74
     0
 49
0.05
 74
     0
 49
-0.05
 74
     0
  0
LTYPE
  5
5F
330
5
100
AcDbSymbolTableRecord
100
AcDbLinetypeTableRecord
  2
CENTER
 70
     0
  3
Center ____ _ ____ _ ____ _ ____ _ ____ _ ____
 72
    65
 73
     4
 40
0.4
 49
0.25
 74
     0
 49
-0.05
 74
     0
 49
0.05
 74
     0
 49
-0.05
 74
     0
  0
LTYPE
  5
60
330
5
100
AcDbSymbolTableRecord
100
AcDbLinetypeTableRecord
  2
CENTERX2
 70
     0
  3
Center (2x) ________  __  ________  __  _____
 72
    65
 73
     4
 40
0.8
 49
0.5
 74
     0
 49
-0.1
 74
     0
 49
0.1
 74
     0
 49
-0.1
 74
     0
  0
LTYPE
  5
61
330
5
100
AcDbSymbolTableRecord
100
AcDbLinetypeTableRecord
  2
DOT2
 70
     0
  3
Dot (.5x) ........................................
 72
    65
 73
     2
 40
0.025
 49
0.0
 74
     0
 49
-0.025
 74
     0
  0
ENDTAB
  0
TABLE
  2
LAYER
  5
2
330
0
100
AcDbSymbolTable
 70
     2
  0
LAYER
  5
10
102
{ACAD_XDICTIONARY
360
3B7
102
}
330
2
100
AcDbSymbolTableRecord
100
AcDbLayerTableRecord
  2
0
 70
     0
 62
     7
  6
Continuous
370
    -3
390
F
  0
LAYER
  5
62
102
{ACAD_XDICTIONARY
360
3B9
102
}
330
2
100
AcDbSymbolTableRecord
100
AcDbLayerTableRecord
  2
WALL
 70
     0
 62
     7
  6
Continuous
370
    40
390
F
  0
ENDTAB
  0
TABLE
  2
STYLE
  5
3
330
0
100
AcDbSymbolTable
 70
     3
  0
STYLE
  5
11
330
3
100
AcDbSymbolTableRecord
100
AcDbTextStyleTableRecord
  2
Standard
 70
     0
 40
0.0
 41
1.0
 50
0.0
 71
     0
 42
0.2
  3
txt
  4

  0
STYLE
  5
6D
330
3
100
AcDbSymbolTableRecord
100
AcDbTextStyleTableRecord
  2
SLDTEXTSTYLE0
 70
     0
 40
0.0
 41
0.605
 50
0.0
 71
     0
 42
0.2
  3
TXT
  4

  0
STYLE
  5
88
330
3
100
AcDbSymbolTableRecord
100
AcDbTextStyleTableRecord
  2
SLDTEXTSTYLE1
 70
     0
 40
0.0
 41
0.7
 50
0.0
 71
     0
 42
0.2
  3
TXT
  4

  0
ENDTAB
  0
TABLE
  2
VIEW
  5
6
330
0
100
AcDbSymbolTable
 70
     0
  0
ENDTAB
  0
TABLE
  2
UCS
  5
7
330
0
100
AcDbSymbolTable
 70
     0
  0
ENDTAB
  0
TABLE
  2
APPID
  5
9
330
0
100
AcDbSymbolTable
 70
     2
  0
APPID
  5
12
330
9
100
AcDbSymbolTableRecord
100
AcDbRegAppTableRecord
  2
ACAD
 70
     0
  0
APPID
  5
3B4
330
9
100
AcDbSymbolTableRecord
100
AcDbRegAppTableRecord
  2
ACAD_MLEADERVER
 70
     0
  0
ENDTAB
  0
TABLE
  2
DIMSTYLE
  5
A
330
0
100
AcDbSymbolTable
 70
     4
100
AcDbDimStyleTable
 71
     0
  0
DIMSTYLE
105
27
330
A
100
AcDbSymbolTableRecord
100
AcDbDimStyleTableRecord
  2
Standard
 70
     0
340
11
  0
DIMSTYLE
105
331
330
A
100
AcDbSymbolTableRecord
100
AcDbDimStyleTableRecord
  2
SLDDIMSTYLE0
 70
     0
 41
0.12
 44
0.0
 45
0.000000001
 78
    12
140
0.121337890625
144
2.0
147
0.03033447265625
173
     1
271
     2
272
     3
284
    12
340
6D
  0
DIMSTYLE
105
33C
330
A
100
AcDbSymbolTableRecord
100
AcDbDimStyleTableRecord
  2
SLDDIMSTYLE1
 70
     0
 41
0.12
 44
0.0
 45
0.000000001
 78
    12
140
0.121337890625
144
2.0
147
0.03033447265625
173
     1
271
     2
272
     3
284
    12
340
6D
  0
DIMSTYLE
105
387
330
A
100
AcDbSymbolTableRecord
100
AcDbDimStyleTableRecord
  2
SLDDIMSTYLE2
 70
     0
 41
0.12
 44
0.0
 45
0.000000001
140
0.12
147
0.03
173
     1
271
     0
272
     0
340
11
  0
ENDTAB
  0
TABLE
  2
BLOCK_RECORD
  5
1
330
0
100
AcDbSymbolTable
 70
    15
  0
BLOCK_RECORD
  5
1F
330
1
100
AcDbSymbolTableRecord
100
AcDbBlockTableRecord
  2
*Model_Space
340
22
  0
BLOCK_RECORD
  5
1B
330
1
100
AcDbSymbolTableRecord
100
AcDbBlockTableRecord
  2
*Paper_Space
340
1E
  0
BLOCK_RECORD
  5
23
330
1
100
AcDbSymbolTableRecord
100
AcDbBlockTableRecord
  2
*Paper_Space0
340
26
  0
BLOCK_RECORD
  5
71
330
1
100
AcDbSymbolTableRecord
100
AcDbBlockTableRecord
  2
SW_NOTE_0
340
0
  0
BLOCK_RECORD
  5
7C
330
1
100
AcDbSymbolTableRecord
100
AcDbBlockTableRecord
  2
SW_NOTE_1
340
0
  0
BLOCK_RECORD
  5
82
330
1
100
AcDbSymbolTableRecord
100
AcDbBlockTableRecord
  2
SW_NOTE_2
340
0
  0
BLOCK_RECORD
  5
8D
330
1
100
AcDbSymbolTableRecord
100
AcDbBlockTableRecord
  2
SW_NOTE_3
340
0
  0
BLOCK_RECORD
  5
97
330
1
100
AcDbSymbolTableRecord
100
AcDbBlockTableRecord
  2
SW_TABLEANNOTATION_0
340
0
  0
BLOCK_RECORD
  5
332
330
1
100
AcDbSymbolTableRecord
100
AcDbBlockTableRecord
  2
*D6
340
0
  0
BLOCK_RECORD
  5
33D
330
1
100
AcDbSymbolTableRecord
100
AcDbBlockTableRecord
  2
*D7
340
0
  0
BLOCK_RECORD
  5
349
330
1
100
AcDbSymbolTableRecord
100
AcDbBlockTableRecord
  2
*D8
340
0
  0
BLOCK_RECORD
  5
354
330
1
100
AcDbSymbolTableRecord
100
AcDbBlockTableRecord
  2
*D9
340
0
  0
BLOCK_RECORD
  5
360
330
1
100
AcDbSymbolTableRecord
100
AcDbBlockTableRecord
  2
*D10
340
0
  0
BLOCK_RECORD
  5
36B
330
1
100
AcDbSymbolTableRecord
100
AcDbBlockTableRecord
  2
*D11
340
0
  0
BLOCK_RECORD
  5
376
330
1
100
AcDbSymbolTableRecord
100
AcDbBlockTableRecord
  2
*D12
340
0
  0
BLOCK_RECORD
  5
381
330
1
100
AcDbSymbolTableRecord
100
AcDbBlockTableRecord
  2
SW_NOTE_4
340
0
  0
BLOCK_RECORD
  5
389
330
1
100
AcDbSymbolTableRecord
100
AcDbBlockTableRecord
  2
SW_NOTE_5
340
0
  0
ENDTAB
  0
ENDSEC
  0
SECTION
  2
BLOCKS
  0
BLOCK
  5
20
330
1F
100
AcDbEntity
  8
0
100
AcDbBlockBegin
  2
*Model_Space
 70
     0
 10
0.0
 20
0.0
 30
0.0
  3
*Model_Space
  1

  0
ENDBLK
  5
21
330
1F
100
AcDbEntity
  8
0
100
AcDbBlockEnd
  0
BLOCK
  5
1C
330
1B
100
AcDbEntity
 67
     1
  8
0
100
AcDbBlockBegin
  2
*Paper_Space
 70
     0
 10
0.0
 20
0.0
 30
0.0
  3
*Paper_Space
  1

  0
ENDBLK
  5
1D
330
1B
100
AcDbEntity
 67
     1
  8
0
100
AcDbBlockEnd
  0
BLOCK
  5
24
330
23
100
AcDbEntity
 67
     1
  8
0
100
AcDbBlockBegin
  2
*Paper_Space0
 70
     0
 10
0.0
 20
0.0
 30
0.0
  3
*Paper_Space0
  1

  0
ENDBLK
  5
25
330
23
100
AcDbEntity
 67
     1
  8
0
100
AcDbBlockEnd
  0
BLOCK
  5
72
330
71
100
AcDbEntity
  8
0
100
AcDbBlockBegin
  2
SW_NOTE_0
 70
     0
 10
0.0
 20
0.0
 30
0.0
  3
SW_NOTE_0
  1

  0
MTEXT
  5
74
330
71
100
AcDbEntity
  8
0
  6
Continuous
 62
     0
370
     0
100
AcDbMText
 10
0.0
 20
0.1342778895595789
 30
0.0
 40
0.1041666666666667
 41
0.0
 71
     1
 72
     1
  1
JOSAM 23730-TSO SERIES COATED CAST IRON ROOF DRAIN, ROUND
  7
SLDTEXTSTYLE0
 73
     1
 44
1.0
1001
ACAD
1000
MTEXTBEGIN
1070
    73
1070
     1
1070
    44
1040
1.0
1070
    74
1070
     0
1000
MTEXTEND
  0
MTEXT
  5
75
330
71
100
AcDbEntity
  8
0
  6
Continuous
 62
     0
370
     0
100
AcDbMText
 10
0.0
 20
-0.0046109976508109
 30
0.0
 40
0.1041666666666667
 41
0.0
 71
     1
 72
     1
  1
PEDESTRIAN GRATE SET IN SQUARE SECURED FRAME,
  7
SLDTEXTSTYLE0
 73
     1
 44
1.0
1001
ACAD
1000
MTEXTBEGIN
1070
    73
1070
     1
1070
    44
1040
1.0
1070
    74
1070
     0
1000
MTEXTEND
  0
MTEXT
  5
76
330
71
100
AcDbEntity
  8
0
  6
Continuous
 62
     0
370
     0
100
AcDbMText
 10
0.0
 20
-0.1434998848612006
 30
0.0
 40
0.1041666666666667
 41
0.0
 71
     1
 72
     1
  1
NON-PUNCTURING FLASHING COLLAR WITH WEEP HOLES FOR 2"
  7
SLDTEXTSTYLE0
 73
     1
 44
1.0
1001
ACAD
1000
MTEXTBEGIN
1070
    73
1070
     1
1070
    44
1040
1.0
1070
    74
1070
     0
1000
MTEXTEND
  0
MTEXT
  5
77
330
71
100
AcDbEntity
  8
0
  6
Continuous
 62
     0
370
     0
100
AcDbMText
 10
0.0
 20
-0.2823887720715904
 30
0.0
 40
0.1041666666666667
 41
0.0
 71
     1
 72
     1
  1
ROOF FILL, SMALL SUMP WITH WIDE ROOF FLANGE AND THREADED
  7
SLDTEXTSTYLE0
 73
     1
 44
1.0
1001
ACAD
1000
MTEXTBEGIN
1070
    73
1070
     1
1070
    44
1040
1.0
1070
    74
1070
     0
1000
MTEXTEND
  0
MTEXT
  5
78
330
71
100
AcDbEntity
  8
0
  6
Continuous
 62
     0
370
     0
100
AcDbMText
 10
0.0
 20
-0.4212776592819801
 30
0.0
 40
0.1041666666666667
 41
0.0
 71
     1
 72
     1
  1
SIDE OUTLET.
  7
SLDTEXTSTYLE0
 73
     1
 44
1.0
1001
ACAD
1000
MTEXTBEGIN
1070
    73
1070
     1
1070
    44
1040
1.0
1070
    74
1070
     0
1000
MTEXTEND
  0
ENDBLK
  5
73
330
71
100
AcDbEntity
  8
0
100
AcDbBlockEnd
  0
BLOCK
  5
7D
330
7C
100
AcDbEntity
  8
0
100
AcDbBlockBegin
  2
SW_NOTE_1
 70
     0
 10
0.0
 20
0.0
 30
0.0
  3
SW_NOTE_1
  1

  0
MTEXT
  5
7F
330
7C
100
AcDbEntity
  8
WALL
 62
     0
100
AcDbMText
 10
0.0
 20
0.1611334674714957
 30
0.0
 40
0.125
 41
0.0
 71
     1
 72
     1
  1
*
  7
SLDTEXTSTYLE0
 73
     1
 44
1.0
1001
ACAD
1000
MTEXTBEGIN
1070
    73
1070
     1
1070
    44
1040
1.0
1070
    74
1070
     0
1000
MTEXTEND
  0
MTEXT
  5
80
330
7C
100
AcDbEntity
  8
WALL
 62
     0
100
AcDbMText
 10
0.1574074116161489
 20
0.1401806665785292
 30
0.0
 40
0.1041666666666667
 41
0.0
 71
     1
 72
     1
  1
-TSO BODY CANNOT BE USED WITH DRAIN RECEIVER
  7
SLDTEXTSTYLE0
 73
     1
 44
1.0
1001
ACAD
1000
MTEXTBEGIN
1070
    73
1070
     1
1070
    44
1040
1.0
1070
    74
1070
     0
1000
MTEXTEND
  0
ENDBLK
  5
7E
330
7C
100
AcDbEntity
  8
0
100
AcDbBlockEnd
  0
BLOCK
  5
83
330
82
100
AcDbEntity
  8
0
100
AcDbBlockBegin
  2
SW_NOTE_2
 70
     0
 10
0.0
 20
0.0
 30
0.0
  3
SW_NOTE_2
  1

  0
MTEXT
  5
85
330
82
100
AcDbEntity
  8
WALL
 62
     0
100
AcDbMText
 10
0.0
 20
0.1611334674714957
 30
0.0
 40
0.125
 41
0.0
 71
     1
 72
     1
  1
**
  7
SLDTEXTSTYLE0
 73
     1
 44
1.0
1001
ACAD
1000
MTEXTBEGIN
1070
    73
1070
     1
1070
    44
1040
1.0
1070
    74
1070
     0
1000
MTEXTEND
  0
MTEXT
  5
86
330
82
100
AcDbEntity
  8
WALL
 62
     0
100
AcDbMText
 10
0.2222222195366236
 20
0.1401806665785292
 30
0.0
 40
0.1041666666666667
 41
0.0
 71
     1
 72
     1
  1
-12 EXTENSION 1" STANDARD
  7
SLDTEXTSTYLE0
 73
     1
 44
1.0
1001
ACAD
1000
MTEXTBEGIN
1070
    73
1070
     1
1070
    44
1040
1.0
1070
    74
1070
     0
1000
MTEXTEND
  0
ENDBLK
  5
84
330
82
100
AcDbEntity
  8
0
100
AcDbBlockEnd
  0
BLOCK
  5
8E
330
8D
100
AcDbEntity
  8
0
100
AcDbBlockBegin
  2
SW_NOTE_3
 70
     0
 10
0.0
 20
0.0
 30
0.0
  3
SW_NOTE_3
  1

  0
MTEXT
  5
90
330
8D
100
AcDbEntity
  8
0
  6
Continuous
 62
     0
370
     0
100
AcDbMText
 10
0.0
 20
0.1007084171696848
 30
0.0
 40
0.078125
 41
0.0
 71
     1
 72
     1
  1
DIMENSIONS ARE SUBJECT TO MANUFACTURERS
  7
SLDTEXTSTYLE0
 73
     1
 44
1.0
1001
ACAD
1000
MTEXTBEGIN
1070
    73
1070
     1
1070
    44
1040
1.0
1070
    74
1070
     0
1000
MTEXTEND
  0
MTEXT
  5
91
330
8D
100
AcDbEntity
  8
0
  6
Continuous
 62
     0
370
     0
100
AcDbMText
 10
0.0785048464386482
 20
-0.0086665826543172
 30
0.0
 40
0.078125
 41
0.0
 71
     1
 72
     1
  1
TOLERANCES AND CHANGE WITHOUT NOTICE.
  7
SLDTEXTSTYLE0
 73
     1
 44
1.0
1001
ACAD
1000
MTEXTBEGIN
1070
    73
1070
     1
1070
    44
1040
1.0
1070
    74
1070
     0
1000
MTEXTEND
  0
MTEXT
  5
92
330
8D
100
AcDbEntity
  8
0
  6
Continuous
 62
     0
370
     0
100
AcDbMText
 10
0.1749607521717943
 20
-0.1180415824783193
 30
0.0
 40
0.078125
 41
0.0
 71
     1
 72
     1
  1
WE CAN ASSUME NO RESPONSIBILITY FOR
  7
SLDTEXTSTYLE0
 73
     1
 44
1.0
1001
ACAD
1000
MTEXTBEGIN
1070
    73
1070
     1
1070
    44
1040
1.0
1070
    74
1070
     0
1000
MTEXTEND
  0
MTEXT
  5
93
330
8D
100
AcDbEntity
  8
0
  6
Continuous
 62
     0
370
     0
100
AcDbMText
 10
0.3091633085190781
 20
-0.2274165823023213
 30
0.0
 40
0.078125
 41
0.0
 71
     1
 72
     1
  1
USE OF SUPERSEDED OR VOID DATA.
  7
SLDTEXTSTYLE0
 73
     1
 44
1.0
1001
ACAD
1000
MTEXTBEGIN
1070
    73
1070
     1
1070
    44
1040
1.0
1070
    74
1070
     0
1000
MTEXTEND
  0
ENDBLK
  5
8F
330
8D
100
AcDbEntity
  8
0
100
AcDbBlockEnd
  0
BLOCK
  5
98
330
97
100
AcDbEntity
  8
0
100
AcDbBlockBegin
  2
SW_TABLEANNOTATION_0
 70
     0
 10
0.0
 20
0.0
 30
0.0
  3
SW_TABLEANNOTATION_0
  1

  0
LINE
  5
9A
330
97
100
AcDbEntity
  8
WALL
 62
     0
100
AcDbLine
 10
0.0
 20
0.0
 30
0.0
 11
0.0
 21
-1.360376001407201
 31
0.0
  0
LINE
  5
9B
330
97
100
AcDbEntity
  8
WALL
 62
     0
100
AcDbLine
 10
0.0
 20
-1.360376001407201
 30
0.0
 11
8.004473156841523
 21
-1.360376001407201
 31
0.0
  0
LINE
  5
9C
330
97
100
AcDbEntity
  8
WALL
 62
     0
100
AcDbLine
 10
8.004473156841523
 20
-1.360376001407201
 30
0.0
 11
8.004473156841523
 21
0.0
 31
0.0
  0
LINE
  5
9D
330
97
100
AcDbEntity
  8
WALL
 62
     0
100
AcDbLine
 10
8.004473156841523
 20
0.0
 30
0.0
 11
0.0
 21
0.0
 31
0.0
  0
LINE
  5
9E
330
97
100
AcDbEntity
  8
WALL
 62
     0
100
AcDbLine
 10
0.2466440115756924
 20
0.0
 30
0.0
 11
0.2466440115756924
 21
-1.360376001407201
 31
0.0
  0
LINE
  5
9F
330
97
100
AcDbEntity
  8
WALL
 62
     0
100
AcDbLine
 10
0.4133106782423594
 20
0.0
 30
0.0
 11
0.4133106782423594
 21
-1.360376001407201
 31
0.0
  0
LINE
  5
A0
330
97
100
AcDbEntity
  8
WALL
 62
     0
100
AcDbLine
 10
0.9813111799530467
 20
0.0
 30
0.0
 11
0.9813111799530467
 21
-1.360376001407201
 31
0.0
  0
LINE
  5
A1
330
97
100
AcDbEntity
  8
WALL
 62
     0
100
AcDbLine
 10
4.009416988533972
 20
0.0
 30
0.0
 11
4.009416988533972
 21
-1.360376001407201
 31
0.0
  0
LINE
  5
A2
330
97
100
AcDbEntity
  8
WALL
 62
     0
100
AcDbLine
 10
4.23442086297767
 20
0.0
 30
0.0
 11
4.23442086297767
 21
-1.360376001407201
 31
0.0
  0
LINE
  5
A3
330
97
100
AcDbEntity
  8
WALL
 62
     0
100
AcDbLine
 10
4.401087529644337
 20
0.0
 30
0.0
 11
4.401087529644337
 21
-1.360376001407201
 31
0.0
  0
LINE
  5
A4
330
97
100
AcDbEntity
  8
WALL
 62
     0
100
AcDbLine
 10
4.892718002264135
 20
0.0
 30
0.0
 11
4.892718002264135
 21
-1.360376001407201
 31
0.0
  0
LINE
  5
A5
330
97
100
AcDbEntity
  8
WALL
 62
     0
100
AcDbLine
 10
0.0000000000000001
 20
-0.2583250756580535
 30
0.0
 11
8.004473156841523
 21
-0.2583250756580535
 31
0.0
  0
LINE
  5
A6
330
97
100
AcDbEntity
  8
WALL
 62
     0
100
AcDbLine
 10
0.0000000000000001
 20
-0.4758721044162133
 30
0.0
 11
8.004473156841523
 21
-0.4758721044162133
 31
0.0
  0
LINE
  5
A7
330
97
100
AcDbEntity
  8
WALL
 62
     0
100
AcDbLine
 10
0.0000000000000001
 20
-0.6934191331743732
 30
0.0
 11
8.004473156841523
 21
-0.6934191331743732
 31
0.0
  0
LINE
  5
A8
330
97
100
AcDbEntity
  8
WALL
 62
     0
100
AcDbLine
 10
0.0000000000000001
 20
-0.9109661619325329
 30
0.0
 11
8.004473156841523
 21
-0.9109661619325329
 31
0.0
  0
LINE
  5
A9
330
97
100
AcDbEntity
  8
WALL
 62
     0
100
AcDbLine
 10
0.0000000000000001
 20
-1.128513190690692
 30
0.0
 11
8.004473156841523
 21
-1.128513190690692
 31
0.0
  0
MTEXT
  5
AA
330
97
100
AcDbEntity
  8
WALL
 62
     0
100
AcDbMText
 10
0.6466936479995204
 20
-0.0875454788504601
 30
-0.000000000000056
 40
0.0833333333333333
 41
0.0
 71
     1
 72
     1
  1
2"
  7
SLDTEXTSTYLE0
 73
     1
 44
1.0
1001
ACAD
1000
MTEXTBEGIN
1070
    73
1070
     1
1070
    44
1040
1.0
1070
    74
1070
     0
1000
MTEXTEND
  0
MTEXT
  5
AB
330
97
100
AcDbEntity
  8
WALL
 62
     0
100
AcDbMText
 10
1.000996219323125
 20
-0.0875454788504601
 30
-0.000000000000056
 40
0.0833333333333333
 41
0.0
 71
     1
 72
     1
  1
 PIPE SIZE
  7
SLDTEXTSTYLE0
 73
     1
 44
1.0
1001
ACAD
1000
MTEXTBEGIN
1070
    73
1070
     1
1070
    44
1040
1.0
1070
    74
1070
     0
1000
MTEXTEND
  0
MTEXT
  5
AC
330
97
100
AcDbEntity
  8
WALL
 62
     0
100
AcDbMText
 10
4.566655851306775
 20
-0.0875454788504601
 30
-0.000000000000056
 40
0.0833333333333333
 41
0.0
 71
     1
 72
     1
  1
-20
  7
SLDTEXTSTYLE0
 73
     1
 44
1.0
1001
ACAD
1000
MTEXTBEGIN
1070
    73
1070
     1
1070
    44
1040
1.0
1070
    74
1070
     0
1000
MTEXTEND
  0
MTEXT
  5
AD
330
97
100
AcDbEntity
  8
WALL
 62
     0
100
AcDbMText
 10
4.912403041634213
 20
-0.0875454788504601
 30
-0.000000000000056
 40
0.0833333333333333
 41
0.0
 71
     1
 72
     1
  1
 GALVANIZED CAST IRON PARTS
  7
SLDTEXTSTYLE0
 73
     1
 44
1.0
1001
ACAD
1000
MTEXTBEGIN
1070
    73
1070
     1
1070
    44
1040
1.0
1070
    74
1070
     0
1000
MTEXTEND
  0
MTEXT
  5
AE
330
97
100
AcDbEntity
  8
WALL
 62
     0
100
AcDbMText
 10
0.6466936479995204
 20
-0.3254815310585668
 30
-0.000000000000056
 40
0.0833333333333333
 41
0.0
 71
     1
 72
     1
  1
3"
  7
SLDTEXTSTYLE0
 73
     1
 44
1.0
1001
ACAD
1000
MTEXTBEGIN
1070
    73
1070
     1
1070
    44
1040
1.0
1070
    74
1070
     0
1000
MTEXTEND
  0
MTEXT
  5
AF
330
97
100
AcDbEntity
  8
WALL
 62
     0
100
AcDbMText
 10
1.000996219323125
 20
-0.3254815310585668
 30
-0.000000000000056
 40
0.0833333333333333
 41
0.0
 71
     1
 72
     1
  1
 PIPE SIZE
  7
SLDTEXTSTYLE0
 73
     1
 44
1.0
1001
ACAD
1000
MTEXTBEGIN
1070
    73
1070
     1
1070
    44
1040
1.0
1070
    74
1070
     0
1000
MTEXTEND
  0
MTEXT
  5
B0
330
97
100
AcDbEntity
  8
WALL
 62
     0
100
AcDbMText
 10
4.486408936659314
 20
-0.3254815310585668
 30
-0.000000000000056
 40
0.0833333333333333
 41
0.0
 71
     1
 72
     1
  1
-12-20
  7
SLDTEXTSTYLE0
 73
     1
 44
1.0
1001
ACAD
1000
MTEXTBEGIN
1070
    73
1070
     1
1070
    44
1040
1.0
1070
    74
1070
     0
1000
MTEXTEND
  0
MTEXT
  5
B1
330
97
100
AcDbEntity
  8
WALL
 62
     0
100
AcDbMText
 10
4.912403041634213
 20
-0.3307590268337414
 30
-0.000000000000056
 40
0.0729166666666667
 41
0.0
 71
     1
 72
     1
  1
 EXT. FLASHING COLLAR, GALVANIZED ( SPECIFY HEIGHT 
  7
SLDTEXTSTYLE0
 73
     1
 44
1.0
1001
ACAD
1000
MTEXTBEGIN
1070
    73
1070
     1
1070
    44
1040
1.0
1070
    74
1070
     0
1000
MTEXTEND
  0
MTEXT
  5
B2
330
97
100
AcDbEntity
  8
WALL
 62
     0
100
AcDbMText
 10
7.67783504179443
 20
-0.3307590268337414
 30
-0.000000000000056
 40
0.0729166666666667
 41
0.0
 71
     1
 72
     1
  1
**
  7
SLDTEXTSTYLE0
 73
     1
 44
1.0
1001
ACAD
1000
MTEXTBEGIN
1070
    73
1070
     1
1070
    44
1040
1.0
1070
    74
1070
     0
1000
MTEXTEND
  0
MTEXT
  5
B3
330
97
100
AcDbEntity
  8
WALL
 62
     0
100
AcDbMText
 10
7.753452568254312
 20
-0.3307590268337414
 30
-0.000000000000056
 40
0.0729166666666667
 41
0.0
 71
     1
 72
     1
  1
 )
  7
SLDTEXTSTYLE0
 73
     1
 44
1.0
1001
ACAD
1000
MTEXTBEGIN
1070
    73
1070
     1
1070
    44
1040
1.0
1070
    74
1070
     0
1000
MTEXTEND
  0
MTEXT
  5
B4
330
97
100
AcDbEntity
  8
WALL
 62
     0
100
AcDbMText
 10
0.6466936479995204
 20
-0.5430285598167267
 30
-0.000000000000056
 40
0.0833333333333333
 41
0.0
 71
     1
 72
     1
  1
4"
  7
SLDTEXTSTYLE0
 73
     1
 44
1.0
1001
ACAD
1000
MTEXTBEGIN
1070
    73
1070
     1
1070
    44
1040
1.0
1070
    74
1070
     0
1000
MTEXTEND
  0
MTEXT
  5
B5
330
97
100
AcDbEntity
  8
WALL
 62
     0
100
AcDbMText
 10
1.000996219323125
 20
-0.5430285598167267
 30
-0.000000000000056
 40
0.0833333333333333
 41
0.0
 71
     1
 72
     1
  1
 PIPE SIZE
  7
SLDTEXTSTYLE0
 73
     1
 44
1.0
1001
ACAD
1000
MTEXTBEGIN
1070
    73
1070
     1
1070
    44
1040
1.0
1070
    74
1070
     0
1000
MTEXTEND
  0
MTEXT
  5
B6
330
97
100
AcDbEntity
  8
WALL
 62
     0
100
AcDbMText
 10
4.566655851306775
 20
-0.5430285598167267
 30
-0.000000000000056
 40
0.0833333333333333
 41
0.0
 71
     1
 72
     1
  1
-50
  7
SLDTEXTSTYLE0
 73
     1
 44
1.0
1001
ACAD
1000
MTEXTBEGIN
1070
    73
1070
     1
1070
    44
1040
1.0
1070
    74
1070
     0
1000
MTEXTEND
  0
MTEXT
  5
B7
330
97
100
AcDbEntity
  8
WALL
 62
     0
100
AcDbMText
 10
4.912403041634213
 20
-0.5430285598167267
 30
-0.000000000000056
 40
0.0833333333333333
 41
0.0
 71
     1
 72
     1
  1
 SATIN FINISH NIKALOY TOP
  7
SLDTEXTSTYLE0
 73
     1
 44
1.0
1001
ACAD
1000
MTEXTBEGIN
1070
    73
1070
     1
1070
    44
1040
1.0
1070
    74
1070
     0
1000
MTEXTEND
  0
MTEXT
  5
B8
330
97
100
AcDbEntity
  8
WALL
 62
     0
100
AcDbMText
 10
4.566655851306775
 20
-0.7605755885748864
 30
-0.000000000000056
 40
0.0833333333333333
 41
0.0
 71
     1
 72
     1
  1
-51
  7
SLDTEXTSTYLE0
 73
     1
 44
1.0
1001
ACAD
1000
MTEXTBEGIN
1070
    73
1070
     1
1070
    44
1040
1.0
1070
    74
1070
     0
1000
MTEXTEND
  0
MTEXT
  5
B9
330
97
100
AcDbEntity
  8
WALL
 62
     0
100
AcDbMText
 10
4.912403041634213
 20
-0.7605755885748864
 30
-0.000000000000056
 40
0.0833333333333333
 41
0.0
 71
     1
 72
     1
  1
 SATIN FINISH BRONZE TOP
  7
SLDTEXTSTYLE0
 73
     1
 44
1.0
1001
ACAD
1000
MTEXTBEGIN
1070
    73
1070
     1
1070
    44
1040
1.0
1070
    74
1070
     0
1000
MTEXTEND
  0
MTEXT
  5
BA
330
97
100
AcDbEntity
  8
WALL
 62
     0
100
AcDbMText
 10
0.0677664509036903
 20
-0.9576155460384581
 30
-0.000000000000056
 40
0.125
 41
0.0
 71
     1
 72
     1
  1
X
  7
SLDTEXTSTYLE0
 73
     1
 44
1.0
1001
ACAD
1000
MTEXTBEGIN
1070
    73
1070
     1
1070
    44
1040
1.0
1070
    74
1070
     0
1000
MTEXTEND
  0
MTEXT
  5
BB
330
97
100
AcDbEntity
  8
WALL
 62
     0
100
AcDbMText
 10
0.5321874732846218
 20
-0.9940948361539446
 30
-0.000000000000056
 40
0.0833333333333333
 41
0.0
 71
     1
 72
     1
  1
-TSO
  7
SLDTEXTSTYLE0
 73
     1
 44
1.0
1001
ACAD
1000
MTEXTBEGIN
1070
    73
1070
     1
1070
    44
1040
1.0
1070
    74
1070
     0
1000
MTEXTEND
  0
MTEXT
  5
BC
330
97
100
AcDbEntity
  8
WALL
 62
     0
100
AcDbMText
 10
0.7976195769903097
 20
-0.9521892366596519
 30
-0.000000000000056
 40
0.125
 41
0.0
 71
     1
 72
     1
  1
*
  7
SLDTEXTSTYLE0
 73
     1
 44
1.0
1001
ACAD
1000
MTEXTBEGIN
1070
    73
1070
     1
1070
    44
1040
1.0
1070
    74
1070
     0
1000
MTEXTEND
  0
MTEXT
  5
BD
330
97
100
AcDbEntity
  8
WALL
 62
     0
100
AcDbMText
 10
1.000996219323125
 20
-0.9781226173330461
 30
-0.000000000000056
 40
0.0833333333333333
 41
0.0
 71
     1
 72
     1
  1
 THREADED SIDE OUTLET
  7
SLDTEXTSTYLE0
 73
     1
 44
1.0
1001
ACAD
1000
MTEXTBEGIN
1070
    73
1070
     1
1070
    44
1040
1.0
1070
    74
1070
     0
1000
MTEXTEND
  0
MTEXT
  5
BE
330
97
100
AcDbEntity
  8
WALL
 62
     0
100
AcDbMText
 10
0.6170640144502422
 20
-1.20282753707038
 30
-0.000000000000056
 40
0.0833333333333333
 41
0.0
 71
     1
 72
     1
  1
-12
  7
SLDTEXTSTYLE0
 73
     1
 44
1.0
1001
ACAD
1000
MTEXTBEGIN
1070
    73
1070
     1
1070
    44
1040
1.0
1070
    74
1070
     0
1000
MTEXTEND
  0
MTEXT
  5
BF
330
97
100
AcDbEntity
  8
WALL
 62
     0
100
AcDbMText
 10
1.000996219323125
 20
-1.208105032845555
 30
-0.000000000000056
 40
0.0729166666666667
 41
0.0
 71
     1
 72
     1
  1
 EXT. FLASHING COLLAR, CAST IRON ( SPECIFY HEIGHT 
  7
SLDTEXTSTYLE0
 73
     1
 44
1.0
1001
ACAD
1000
MTEXTBEGIN
1070
    73
1070
     1
1070
    44
1040
1.0
1070
    74
1070
     0
1000
MTEXTEND
  0
MTEXT
  5
C0
330
97
100
AcDbEntity
  8
WALL
 62
     0
100
AcDbMText
 10
3.6800085244777
 20
-1.208105032845555
 30
-0.000000000000056
 40
0.0729166666666667
 41
0.0
 71
     1
 72
     1
  1
**
  7
SLDTEXTSTYLE0
 73
     1
 44
1.0
1001
ACAD
1000
MTEXTBEGIN
1070
    73
1070
     1
1070
    44
1040
1.0
1070
    74
1070
     0
1000
MTEXTEND
  0
MTEXT
  5
C1
330
97
100
AcDbEntity
  8
WALL
 62
     0
100
AcDbMText
 10
3.755625757607637
 20
-1.208105032845555
 30
-0.000000000000056
 40
0.0729166666666667
 41
0.0
 71
     1
 72
     1
  1
 )
  7
SLDTEXTSTYLE0
 73
     1
 44
1.0
1001
ACAD
1000
MTEXTBEGIN
1070
    73
1070
     1
1070
    44
1040
1.0
1070
    74
1070
     0
1000
MTEXTEND
  0
MTEXT
  5
C2
330
97
100
AcDbEntity
  8
WALL
 62
     0
100
AcDbMText
 10
4.554310171425123
 20
-1.20282753707038
 30
-0.000000000000056
 40
0.0833333333333333
 41
0.0
 71
     1
 72
     1
  1
-VP
  7
SLDTEXTSTYLE0
 73
     1
 44
1.0
1001
ACAD
1000
MTEXTBEGIN
1070
    73
1070
     1
1070
    44
1040
1.0
1070
    74
1070
     0
1000
MTEXTEND
  0
MTEXT
  5
C3
330
97
100
AcDbEntity
  8
WALL
 62
     0
100
AcDbMText
 10
4.912403041634213
 20
-1.20282753707038
 30
-0.000000000000056
 40
0.0833333333333333
 41
0.0
 71
     1
 72
     1
  1
 SECURED GRATE, VANDAL-PROOF SCREWS
  7
SLDTEXTSTYLE0
 73
     1
 44
1.0
1001
ACAD
1000
MTEXTBEGIN
1070
    73
1070
     1
1070
    44
1040
1.0
1070
    74
1070
     0
1000
MTEXTEND
  0
ENDBLK
  5
99
330
97
100
AcDbEntity
  8
0
100
AcDbBlockEnd
  0
BLOCK
  5
333
330
332
100
AcDbEntity
  8
0
100
AcDbBlockBegin
  2
*D6
 70
     1
 10
0.0
 20
0.0
 30
0.0
  3
*D6
  1

  0
SOLID
  5
335
330
332
100
AcDbEntity
  8
WALL
100
AcDbTrace
 10
5.331672309160231
 20
6.530113878935852
 30
0.0
 11
5.311672309160232
 21
6.410113878935852
 31
0.0
 12
5.351672309160231
 22
6.410113878935852
 32
0.0
 13
5.351672309160231
 23
6.410113878935852
 33
0.0
  0
SOLID
  5
336
330
332
100
AcDbEntity
  8
WALL
100
AcDbTrace
 10
5.331672309160231
 20
6.655113878935852
 30
0.0
 11
5.351672309160231
 21
6.775113878935852
 31
0.0
 12
5.311672309160232
 22
6.775113878935852
 32
0.0
 13
5.311672309160232
 23
6.775113878935852
 33
0.0
  0
LINE
  5
337
330
332
100
AcDbEntity
  8
WALL
100
AcDbLine
 10
5.20667230916023
 20
6.987380217199674
 30
0.0
 11
5.331672309160231
 21
6.987380217199674
 31
0.0
  0
LINE
  5
338
330
332
100
AcDbEntity
  8
WALL
100
AcDbLine
 10
5.331672309160231
 20
6.987380217199674
 30
0.0
 11
5.331672309160231
 21
6.655113878935852
 31
0.0
  0
LINE
  5
339
330
332
100
AcDbEntity
  8
WALL
100
AcDbLine
 10
5.331672309160231
 20
6.530113878935852
 30
0.0
 11
5.331672309160231
 21
6.342613878935852
 31
0.0
  0
MTEXT
  5
33A
330
332
100
AcDbEntity
  8
WALL
100
AcDbMText
 10
4.853518303870276
 20
7.055368544873925
 30
-0.0000000000000493
 40
0.125
 41
0.0
 71
     1
 72
     1
  1
1/4"
  7
SLDTEXTSTYLE0
 73
     1
 44
1.0
1001
ACAD
1000
MTEXTBEGIN
1070
    73
1070
     1
1070
    44
1040
1.0
1070
    74
1070
     0
1000
MTEXTEND
  0
ENDBLK
  5
334
330
332
100
AcDbEntity
  8
0
100
AcDbBlockEnd
  0
BLOCK
  5
33E
330
33D
100
AcDbEntity
  8
0
100
AcDbBlockBegin
  2
*D7
 70
     1
 10
0.0
 20
0.0
 30
0.0
  3
*D7
  1

  0
SOLID
  5
340
330
33D
100
AcDbEntity
  8
WALL
100
AcDbTrace
 10
2.643134276389179
 20
7.529458624254737
 30
0.0
 11
2.763134276389179
 21
7.509458624254738
 31
0.0
 12
2.763134276389179
 22
7.549458624254737
 32
0.0
 13
2.763134276389179
 23
7.549458624254737
 33
0.0
  0
SOLID
  5
341
330
33D
100
AcDbEntity
  8
WALL
100
AcDbTrace
 10
5.799384276389178
 20
7.529458624254748
 30
0.0
 11
5.679384276389178
 21
7.549458624254747
 31
0.0
 12
5.679384276389178
 22
7.509458624254748
 32
0.0
 13
5.679384276389178
 23
7.509458624254748
 33
0.0
  0
LINE
  5
342
330
33D
100
AcDbEntity
  8
WALL
100
AcDbLine
 10
2.643134276389182
 20
6.717613878935843
 30
0.0
 11
2.643134276389179
 21
7.654458624254737
 31
0.0
  0
LINE
  5
343
330
33D
100
AcDbEntity
  8
WALL
100
AcDbLine
 10
5.799384276389182
 20
6.717613878935853
 30
0.0
 11
5.799384276389178
 21
7.654458624254748
 31
0.0
  0
LINE
  5
344
330
33D
100
AcDbEntity
  8
WALL
100
AcDbLine
 10
2.643134276389179
 20
7.529458624254737
 30
0.0
 11
3.880558930674325
 21
7.529458624254742
 31
0.0
  0
LINE
  5
345
330
33D
100
AcDbEntity
  8
WALL
100
AcDbLine
 10
5.799384276389178
 20
7.529458624254748
 30
0.0
 11
4.561959622104033
 21
7.529458624254744
 31
0.0
  0
MTEXT
  5
346
330
33D
100
AcDbEntity
  8
WALL
100
AcDbMText
 10
3.943058930674326
 20
7.597446951928992
 30
-0.0000000000000531
 40
0.125
 41
0.0
 71
     1
 72
     1
  1
%%c
  7
SLDTEXTSTYLE0
 73
     1
 44
1.0
1001
ACAD
1000
MTEXTBEGIN
1070
    73
1070
     1
1070
    44
1040
1.0
1070
    74
1070
     0
1000
MTEXTEND
  0
MTEXT
  5
347
330
33D
100
AcDbEntity
  8
WALL
100
AcDbMText
 10
4.119880312079476
 20
7.597446951928992
 30
-0.0000000000000531
 40
0.125
 41
0.0
 71
     1
 72
     1
  1
6-3/8
  7
SLDTEXTSTYLE0
 73
     1
 44
1.0
1001
ACAD
1000
MTEXTBEGIN
1070
    73
1070
     1
1070
    44
1040
1.0
1070
    74
1070
     0
1000
MTEXTEND
  0
ENDBLK
  5
33F
330
33D
100
AcDbEntity
  8
0
100
AcDbBlockEnd
  0
BLOCK
  5
34A
330
349
100
AcDbEntity
  8
0
100
AcDbBlockBegin
  2
*D8
 70
     1
 10
0.0
 20
0.0
 30
0.0
  3
*D8
  1

  0
SOLID
  5
34C
330
349
100
AcDbEntity
  8
WALL
100
AcDbTrace
 10
1.971259276389177
 20
7.918321477673301
 30
0.0
 11
2.091259276389177
 21
7.898321477673301
 31
0.0
 12
2.091259276389177
 22
7.938321477673301
 32
0.0
 13
2.091259276389177
 23
7.938321477673301
 33
0.0
  0
SOLID
  5
34D
330
349
100
AcDbEntity
  8
WALL
100
AcDbTrace
 10
6.471259276389177
 20
7.918321477673317
 30
0.0
 11
6.351259276389177
 21
7.938321477673317
 31
0.0
 12
6.351259276389177
 22
7.898321477673317
 32
0.0
 13
6.351259276389177
 23
7.898321477673317
 33
0.0
  0
LINE
  5
34E
330
349
100
AcDbEntity
  8
WALL
100
AcDbLine
 10
1.971259276389181
 20
6.717613878935839
 30
0.0
 11
1.971259276389177
 21
8.043321477673302
 31
0.0
  0
LINE
  5
34F
330
349
100
AcDbEntity
  8
WALL
100
AcDbLine
 10
6.471259276389181
 20
6.717613878935856
 30
0.0
 11
6.471259276389177
 21
8.043321477673318
 31
0.0
  0
LINE
  5
350
330
349
100
AcDbEntity
  8
WALL
100
AcDbLine
 10
1.971259276389177
 20
7.918321477673301
 30
0.0
 11
3.737496229770273
 21
7.918321477673307
 31
0.0
  0
LINE
  5
351
330
349
100
AcDbEntity
  8
WALL
100
AcDbLine
 10
6.471259276389177
 20
7.918321477673317
 30
0.0
 11
4.70502232300808
 21
7.91832147767331
 31
0.0
  0
MTEXT
  5
352
330
349
100
AcDbEntity
  8
WALL
100
AcDbMText
 10
3.799996229770275
 20
7.98630980534756
 30
-0.0000000000000558
 40
0.125
 41
0.0
 71
     1
 72
     1
  1
9 SQUARE
  7
SLDTEXTSTYLE0
 73
     1
 44
1.0
1001
ACAD
1000
MTEXTBEGIN
1070
    73
1070
     1
1070
    44
1040
1.0
1070
    74
1070
     0
1000
MTEXTEND
  0
ENDBLK
  5
34B
330
349
100
AcDbEntity
  8
0
100
AcDbBlockEnd
  0
BLOCK
  5
355
330
354
100
AcDbEntity
  8
0
100
AcDbBlockBegin
  2
*D9
 70
     1
 10
0.0
 20
0.0
 30
0.0
  3
*D9
  1

  0
SOLID
  5
357
330
354
100
AcDbEntity
  8
WALL
100
AcDbTrace
 10
6.471259276389177
 20
8.339522545332208
 30
0.0
 11
6.351259276389177
 21
8.359522545332207
 31
0.0
 12
6.351259276389177
 22
8.319522545332208
 32
0.0
 13
6.351259276389177
 23
8.319522545332208
 33
0.0
  0
SOLID
  5
358
330
354
100
AcDbEntity
  8
WALL
100
AcDbTrace
 10
1.920197570257441
 20
8.33952254533219
 30
0.0
 11
2.04019757025744
 21
8.319522545332191
 31
0.0
 12
2.04019757025744
 22
8.35952254533219
 32
0.0
 13
2.04019757025744
 23
8.35952254533219
 33
0.0
  0
LINE
  5
359
330
354
100
AcDbEntity
  8
WALL
100
AcDbLine
 10
6.471259276389186
 20
5.906227381947765
 30
0.0
 11
6.471259276389177
 21
8.464522545332208
 31
0.0
  0
LINE
  5
35A
330
354
100
AcDbEntity
  8
WALL
100
AcDbLine
 10
1.920197570257449
 20
5.906227381947748
 30
0.0
 11
1.92019757025744
 21
8.464522545332192
 31
0.0
  0
LINE
  5
35B
330
354
100
AcDbEntity
  8
WALL
100
AcDbLine
 10
6.471259276389177
 20
8.339522545332208
 30
0.0
 11
4.536428769038163
 21
8.339522545332201
 31
0.0
  0
LINE
  5
35C
330
354
100
AcDbEntity
  8
WALL
100
AcDbLine
 10
1.920197570257441
 20
8.33952254533219
 30
0.0
 11
3.855028077608456
 21
8.339522545332199
 31
0.0
  0
MTEXT
  5
35D
330
354
100
AcDbEntity
  8
WALL
100
AcDbMText
 10
3.917528077608456
 20
8.407510873006449
 30
-0.0000000000000587
 40
0.125
 41
0.0
 71
     1
 72
     1
  1
%%c
  7
SLDTEXTSTYLE0
 73
     1
 44
1.0
1001
ACAD
1000
MTEXTBEGIN
1070
    73
1070
     1
1070
    44
1040
1.0
1070
    74
1070
     0
1000
MTEXTEND
  0
MTEXT
  5
35E
330
354
100
AcDbEntity
  8
WALL
100
AcDbMText
 10
4.094349459013605
 20
8.407510873006449
 30
-0.0000000000000587
 40
0.125
 41
0.0
 71
     1
 72
     1
  1
9-1/4
  7
SLDTEXTSTYLE0
 73
     1
 44
1.0
1001
ACAD
1000
MTEXTBEGIN
1070
    73
1070
     1
1070
    44
1040
1.0
1070
    74
1070
     0
1000
MTEXTEND
  0
ENDBLK
  5
356
330
354
100
AcDbEntity
  8
0
100
AcDbBlockEnd
  0
BLOCK
  5
361
330
360
100
AcDbEntity
  8
0
100
AcDbBlockBegin
  2
*D10
 70
     1
 10
0.0
 20
0.0
 30
0.0
  3
*D10
  1

  0
SOLID
  5
363
330
360
100
AcDbEntity
  8
WALL
100
AcDbTrace
 10
7.480913754038623
 20
6.65511387893586
 30
0.0
 11
7.460913754038624
 21
6.53511387893586
 31
0.0
 12
7.500913754038623
 22
6.53511387893586
 32
0.0
 13
7.500913754038623
 23
6.53511387893586
 33
0.0
  0
SOLID
  5
364
330
360
100
AcDbEntity
  8
WALL
100
AcDbTrace
 10
7.480913754038626
 20
5.859352381947767
 30
0.0
 11
7.500913754038625
 21
5.979352381947768
 31
0.0
 12
7.460913754038626
 22
5.979352381947768
 32
0.0
 13
7.460913754038626
 23
5.979352381947768
 33
0.0
  0
LINE
  5
365
330
360
100
AcDbEntity
  8
WALL
100
AcDbLine
 10
6.533759276389181
 20
6.655113878935856
 30
0.0
 11
7.605913754038624
 21
6.65511387893586
 31
0.0
  0
LINE
  5
366
330
360
100
AcDbEntity
  8
WALL
100
AcDbLine
 10
6.518134276389185
 20
5.859352381947765
 30
0.0
 11
7.605913754038626
 21
5.859352381947767
 31
0.0
  0
LINE
  5
367
330
360
100
AcDbEntity
  8
WALL
100
AcDbLine
 10
7.480913754038623
 20
6.65511387893586
 30
0.0
 11
7.480913754038623
 21
6.350378270239055
 31
0.0
  0
LINE
  5
368
330
360
100
AcDbEntity
  8
WALL
100
AcDbLine
 10
7.480913754038626
 20
5.859352381947767
 30
0.0
 11
7.480913754038624
 21
6.164087990644573
 31
0.0
  0
MTEXT
  5
369
330
360
100
AcDbEntity
  8
WALL
100
AcDbMText
 10
7.434701413962423
 20
6.325221458116065
 30
-0.0000000000000442
 40
0.125
 41
0.0
 71
     1
 72
     1
  1
2
  7
SLDTEXTSTYLE0
 73
     1
 44
1.0
1001
ACAD
1000
MTEXTBEGIN
1070
    73
1070
     1
1070
    44
1040
1.0
1070
    74
1070
     0
1000
MTEXTEND
  0
ENDBLK
  5
362
330
360
100
AcDbEntity
  8
0
100
AcDbBlockEnd
  0
BLOCK
  5
36C
330
36B
100
AcDbEntity
  8
0
100
AcDbBlockBegin
  2
*D11
 70
     1
 10
0.0
 20
0.0
 30
0.0
  3
*D11
  1

  0
SOLID
  5
36E
330
36B
100
AcDbEntity
  8
WALL
100
AcDbTrace
 10
7.480913754038615
 20
5.859352381947767
 30
0.0
 11
7.460913754038616
 21
5.739352381947767
 31
0.0
 12
7.500913754038615
 22
5.739352381947767
 32
0.0
 13
7.500913754038615
 23
5.739352381947767
 33
0.0
  0
SOLID
  5
36F
330
36B
100
AcDbEntity
  8
WALL
100
AcDbTrace
 10
7.480913754038624
 20
3.546852381947768
 30
0.0
 11
7.500913754038624
 21
3.666852381947768
 31
0.0
 12
7.460913754038625
 22
3.666852381947768
 32
0.0
 13
7.460913754038625
 23
3.666852381947768
 33
0.0
  0
LINE
  5
370
330
36B
100
AcDbEntity
  8
WALL
100
AcDbLine
 10
6.518134276389185
 20
5.859352381947765
 30
0.0
 11
7.605913754038616
 21
5.859352381947767
 31
0.0
  0
LINE
  5
371
330
36B
100
AcDbEntity
  8
WALL
100
AcDbLine
 10
6.252509276389193
 20
3.546852381947763
 30
0.0
 11
7.605913754038625
 21
3.546852381947768
 31
0.0
  0
LINE
  5
372
330
36B
100
AcDbEntity
  8
WALL
100
AcDbLine
 10
7.480913754038615
 20
5.859352381947767
 30
0.0
 11
7.48091375403862
 21
4.79624752174501
 31
0.0
  0
LINE
  5
373
330
36B
100
AcDbEntity
  8
WALL
100
AcDbLine
 10
7.480913754038624
 20
3.546852381947768
 30
0.0
 11
7.480913754038621
 21
4.609957242150527
 31
0.0
  0
MTEXT
  5
374
330
36B
100
AcDbEntity
  8
WALL
100
AcDbMText
 10
7.29112409902634
 20
4.771090709622018
 30
-0.0000000000000333
 40
0.125
 41
0.0
 71
     1
 72
     1
  1
4-5/8
  7
SLDTEXTSTYLE0
 73
     1
 44
1.0
1001
ACAD
1000
MTEXTBEGIN
1070
    73
1070
     1
1070
    44
1040
1.0
1070
    74
1070
     0
1000
MTEXTEND
  0
ENDBLK
  5
36D
330
36B
100
AcDbEntity
  8
0
100
AcDbBlockEnd
  0
BLOCK
  5
377
330
376
100
AcDbEntity
  8
0
100
AcDbBlockBegin
  2
*D12
 70
     1
 10
0.0
 20
0.0
 30
0.0
  3
*D12
  1

  0
SOLID
  5
379
330
376
100
AcDbEntity
  8
WALL
100
AcDbTrace
 10
6.678805720411204
 20
4.921852381947765
 30
0.0
 11
6.658805720411204
 21
4.801852381947765
 31
0.0
 12
6.698805720411203
 22
4.801852381947765
 32
0.0
 13
6.698805720411203
 23
4.801852381947765
 33
0.0
  0
SOLID
  5
37A
330
376
100
AcDbEntity
  8
WALL
100
AcDbTrace
 10
6.678805720411208
 20
3.796852381947766
 30
0.0
 11
6.698805720411208
 21
3.916852381947766
 31
0.0
 12
6.658805720411208
 22
3.916852381947766
 32
0.0
 13
6.658805720411208
 23
3.916852381947766
 33
0.0
  0
LINE
  5
37B
330
376
100
AcDbEntity
  8
WALL
100
AcDbLine
 10
6.283759276389188
 20
4.921852381947764
 30
0.0
 11
6.803805720411204
 21
4.921852381947765
 31
0.0
  0
LINE
  5
37C
330
376
100
AcDbEntity
  8
WALL
100
AcDbLine
 10
6.283759276389193
 20
3.796852381947764
 30
0.0
 11
6.803805720411208
 21
3.796852381947767
 31
0.0
  0
LINE
  5
37D
330
376
100
AcDbEntity
  8
WALL
100
AcDbLine
 10
6.678805720411204
 20
4.921852381947765
 30
0.0
 11
6.678805720411205
 21
4.545642661542249
 31
0.0
  0
LINE
  5
37E
330
376
100
AcDbEntity
  8
WALL
100
AcDbLine
 10
6.678805720411208
 20
3.796852381947766
 30
0.0
 11
6.678805720411206
 21
4.173062102353284
 31
0.0
  0
MTEXT
  5
37F
330
376
100
AcDbEntity
  8
WALL
100
AcDbMText
 10
6.493647591687186
 20
4.334195569824775
 30
-0.0000000000000303
 40
0.125
 41
0.0
 71
     1
 72
     1
  1
SIZE
  7
SLDTEXTSTYLE0
 73
     1
 44
1.0
1001
ACAD
1000
MTEXTBEGIN
1070
    73
1070
     1
1070
    44
1040
1.0
1070
    74
1070
     0
1000
MTEXTEND
  0
MTEXT
  5
380
330
376
100
AcDbEntity
  8
WALL
100
AcDbMText
 10
6.504641065398924
 20
4.520485849419257
 30
-0.0000000000000316
 40
0.125
 41
0.0
 71
     1
 72
     1
  1
PIPE
  7
SLDTEXTSTYLE0
 73
     1
 44
1.0
1001
ACAD
1000
MTEXTBEGIN
1070
    73
1070
     1
1070
    44
1040
1.0
1070
    74
1070
     0
1000
MTEXTEND
  0
ENDBLK
  5
378
330
376
100
AcDbEntity
  8
0
100
AcDbBlockEnd
  0
BLOCK
  5
382
330
381
100
AcDbEntity
  8
0
100
AcDbBlockBegin
  2
SW_NOTE_4
 70
     0
 10
0.0
 20
0.0
 30
0.0
  3
SW_NOTE_4
  1

  0
MTEXT
  5
384
330
381
100
AcDbEntity
  8
WALL
 62
     0
100
AcDbMText
 10
-1.343659481795909
 20
0.2270041433069962
 30
0.0
 40
0.125
 41
0.0
 71
     1
 72
     1
  1
GRATE FREE
  7
SLDTEXTSTYLE0
 73
     1
 44
1.0
1001
ACAD
1000
MTEXTBEGIN
1070
    73
1070
     1
1070
    44
1040
1.0
1070
    74
1070
     0
1000
MTEXTEND
  0
MTEXT
  5
385
330
381
100
AcDbEntity
  8
WALL
 62
     0
100
AcDbMText
 10
-1.343659481795909
 20
0.0603374786545285
 30
0.0
 40
0.125
 41
0.0
 71
     1
 72
     1
  1
AREA 9.2 SQ. IN.
  7
SLDTEXTSTYLE0
 73
     1
 44
1.0
1001
ACAD
1000
MTEXTBEGIN
1070
    73
1070
     1
1070
    44
1040
1.0
1070
    74
1070
     0
1000
MTEXTEND
  0
ENDBLK
  5
383
330
381
100
AcDbEntity
  8
0
100
AcDbBlockEnd
  0
BLOCK
  5
38A
330
389
100
AcDbEntity
  8
0
100
AcDbBlockBegin
  2
SW_NOTE_5
 70
     0
 10
0.0
 20
0.0
 30
0.0
  3
SW_NOTE_5
  1

  0
MTEXT
  5
38C
330
389
100
AcDbEntity
  8
WALL
 62
     0
100
AcDbMText
 10
-0.8529109042384279
 20
0.0955080429431707
 30
0.0
 40
0.125
 41
0.0
 71
     1
 72
     1
  1
FLASHING
  7
SLDTEXTSTYLE0
 73
     1
 44
1.0
1001
ACAD
1000
MTEXTBEGIN
1070
    73
1070
     1
1070
    44
1040
1.0
1070
    74
1070
     0
1000
MTEXTEND
  0
MTEXT
  5
38D
330
389
100
AcDbEntity
  8
WALL
 62
     0
100
AcDbMText
 10
-0.8529109042384279
 20
-0.071158621709297
 30
0.0
 40
0.125
 41
0.0
 71
     1
 72
     1
  1
CLAMP
  7
SLDTEXTSTYLE0
 73
     1
 44
1.0
1001
ACAD
1000
MTEXTBEGIN
1070
    73
1070
     1
1070
    44
1040
1.0
1070
    74
1070
     0
1000
MTEXTEND
  0
MTEXT
  5
38E
330
389
100
AcDbEntity
  8
WALL
 62
     0
100
AcDbMText
 10
-0.8529109042384279
 20
-0.2378252863617647
 30
0.0
 40
0.125
 41
0.0
 71
     1
 72
     1
  1
COLLAR
  7
SLDTEXTSTYLE0
 73
     1
 44
1.0
1001
ACAD
1000
MTEXTBEGIN
1070
    73
1070
     1
1070
    44
1040
1.0
1070
    74
1070
     0
1000
MTEXTEND
  0
ENDBLK
  5
38B
330
389
100
AcDbEntity
  8
0
100
AcDbBlockEnd
  0
ENDSEC
  0
SECTION
  2
ENTITIES
  0
CIRCLE
  5
C5
330
1F
100
AcDbEntity
  8
0
  6
Continuous
 62
     7
100
AcDbCircle
 10
2.658759276389158
 20
10.06810584168388
 30
0.0
 40
0.0937500000000007
  0
CIRCLE
  5
C6
330
1F
100
AcDbEntity
  8
0
  6
Continuous
 62
     7
100
AcDbCircle
 10
5.00250927638917
 20
8.714941148270707
 30
0.0
 40
0.0937500000000006
  0
CIRCLE
  5
C7
330
1F
100
AcDbEntity
  8
0
  6
Continuous
 62
     7
100
AcDbCircle
 10
5.002509276389161
 20
11.42127053509707
 30
0.0
 40
0.0937499999999993
  0
SPLINE
  5
C8
330
1F
100
AcDbEntity
  8
0
  6
Continuous
 62
     7
370
    30
100
AcDbSpline
210
0.0
220
0.0
230
1.0
 70
    24
 71
     1
 72
     4
 73
     2
 74
     0
 42
0.0000000001
 43
0.0000000001
 40
0.0
 40
0.0
 40
1.0
 40
1.0
 10
3.249296424586962
 20
10.57961676266607
 30
0.0
 10
3.278734944510667
 20
10.63060583030268
 30
0.0
  0
SPLINE
  5
C9
330
1F
100
AcDbEntity
  8
0
  6
Continuous
 62
     7
370
    30
100
AcDbSpline
210
0.0
220
0.0
230
1.0
 70
    24
 71
     1
 72
     4
 73
     2
 74
     0
 42
0.0000000001
 43
0.0000000001
 40
0.0
 40
0.0
 40
1.0
 40
1.0
 10
5.163783608267646
 20
10.63060583030269
 30
0.0
 10
5.193222128191352
 20
10.57961676266608
 30
0.0
  0
ARC
  5
CA
330
1F
100
AcDbEntity
  8
0
  6
Continuous
 62
     7
370
    30
100
AcDbCircle
 10
4.221259276389159
 20
10.06810584168388
 30
0.0
 40
2.301061706131735
100
AcDbArc
 50
77.90718115793545
 51
102.0928188420649
  0
ARC
  5
CB
330
1F
100
AcDbEntity
  8
0
  6
Continuous
 62
     7
370
    30
100
AcDbCircle
 10
4.221259276389159
 20
10.06810584168388
 30
0.0
 40
2.301061706131735
100
AcDbArc
 50
167.9071811579356
 51
192.0928188420656
  0
ARC
  5
CC
330
1F
100
AcDbEntity
  8
0
  6
Continuous
 62
     7
370
    30
100
AcDbCircle
 10
4.221259276389159
 20
10.06810584168388
 30
0.0
 40
2.301061706131735
100
AcDbArc
 50
257.9071811579364
 51
282.0928188420656
  0
LWPOLYLINE
  5
CD
330
1F
100
AcDbEntity
  8
0
  6
Continuous
 62
     7
370
    30
100
AcDbPolyline
 90
       15
 70
   128
 43
0.0
 10
3.249296424586962
 20
10.57961676266607
 10
3.249259025019005
 20
10.57963832241701
 10
3.24896019513778
 20
10.57981087375702
 10
3.248363268700192
 20
10.58015546310963
 10
3.247469859020937
 20
10.58067132048373
 10
3.2462821660746
 20
10.58135701589585
 10
3.244803196493116
 20
10.58221089936505
 10
3.243036836898253
 20
10.58323069758426
 10
3.240987560571668
 20
10.58441384391645
 10
3.238660574119881
 20
10.58575733172969
 10
3.236061890806759
 20
10.5872576777309
 10
3.23319811055606
 20
10.58891110529703
 10
3.230076566616402
 20
10.59071332447764
 10
3.226705178896294
 20
10.59265978865859
 10
3.223092673961592
 20
10.59474547456457
  0
SPLINE
  5
CE
330
1F
100
AcDbEntity
  8
0
  6
Continuous
 62
     7
370
    30
100
AcDbSpline
210
0.0
220
0.0
230
1.0
 70
     8
 71
     3
 72
    13
 73
     9
 74
     0
 42
0.0000000001
 43
0.0000000001
 40
0.0
 40
0.0
 40
0.0
 40
0.0
 40
0.2159547672800397
 40
0.4318833463443579
 40
0.6187907146003035
 40
0.8056719562184516
 40
0.9710159282515904
 40
0.9999999999999998
 40
0.9999999999999998
 40
0.9999999999999998
 40
0.9999999999999998
 10
3.223092673961592
 20
10.59474547456457
 30
0.0
 10
3.221429702057349
 20
10.5970548713449
 30
0.0
 10
3.218103959912701
 20
10.60167338485163
 30
0.0
 10
3.212396975415667
 20
10.60889351308321
 30
0.0
 10
3.206313619665065
 20
10.61606391231502
 30
0.0
 10
3.200058153341603
 20
10.62284444379659
 30
0.0
 10
3.195342510486242
 20
10.62772257891193
 30
0.0
 10
3.192660046866886
 20
10.63023160803991
 30
0.0
 10
3.192259956810438
 20
10.63060583030268
 30
0.0
  0
LWPOLYLINE
  5
CF
330
1F
100
AcDbEntity
  8
0
  6
Continuous
 62
     7
370
    30
100
AcDbPolyline
 90
       15
 70
   128
 43
0.0
 10
5.193222128191352
 20
10.57961676266608
 10
5.193259527759309
 20
10.57963832241702
 10
5.193558357640534
 20
10.57981087375703
 10
5.194155284078123
 20
10.58015546310963
 10
5.195048693757377
 20
10.58067132048374
 10
5.196236386703714
 20
10.58135701589586
 10
5.197715356285198
 20
10.58221089936506
 10
5.199481715880061
 20
10.58323069758426
 10
5.201530992206646
 20
10.58441384391646
 10
5.203857978658433
 20
10.5857573317297
 10
5.206456661971555
 20
10.58725767773091
 10
5.209320442222255
 20
10.58891110529704
 10
5.212441986161913
 20
10.59071332447765
 10
5.215813373882021
 20
10.5926597886586
 10
5.219425878816722
 20
10.59474547456458
  0
SPLINE
  5
D0
330
1F
100
AcDbEntity
  8
0
  6
Continuous
 62
     7
370
    30
100
AcDbSpline
210
0.0
220
0.0
230
1.0
 70
     8
 71
     3
 72
    13
 73
     9
 74
     0
 42
0.0000000001
 43
0.0000000001
 40
0.0
 40
0.0
 40
0.0
 40
0.0
 40
0.2159547672800397
 40
0.4318833463443579
 40
0.6187907146003035
 40
0.8056719562184516
 40
0.9710159282515904
 40
0.9999999999999998
 40
0.9999999999999998
 40
0.9999999999999998
 40
0.9999999999999998
 10
5.219425878816722
 20
10.59474547456458
 30
0.0
 10
5.221088850720964
 20
10.59705487134491
 30
0.0
 10
5.224414592865613
 20
10.60167338485164
 30
0.0
 10
5.230121577362647
 20
10.60889351308321
 30
0.0
 10
5.236204933113248
 20
10.61606391231503
 30
0.0
 10
5.242460399436711
 20
10.62284444379659
 30
0.0
 10
5.247176042292072
 20
10.62772257891194
 30
0.0
 10
5.249858505911429
 20
10.63023160803991
 30
0.0
 10
5.250258595967876
 20
10.63060583030269
 30
0.0
  0
LINE
  5
D1
330
1F
100
AcDbEntity
  8
0
  6
Continuous
 62
     7
370
    30
100
AcDbLine
 10
6.471259230864344
 20
12.31810579615909
 30
0.0
 11
6.471259230864359
 21
7.818105887208703
 31
0.0
  0
LINE
  5
D2
330
1F
100
AcDbEntity
  8
0
  6
Continuous
 62
     7
370
    30
100
AcDbLine
 10
1.971259321913958
 20
12.31810579615907
 30
0.0
 11
6.471259230864344
 21
12.31810579615909
 31
0.0
  0
CIRCLE
  5
D3
330
1F
100
AcDbEntity
  8
0
  6
Continuous
 62
     7
370
    30
100
AcDbCircle
 10
4.221259276389159
 20
10.06810584168388
 30
0.0
 40
1.62340514270984
  0
LINE
  5
D4
330
1F
100
AcDbEntity
  8
0
  6
Continuous
 62
     7
370
    30
100
AcDbLine
 10
1.971259321913974
 20
7.818105887208686
 30
0.0
 11
1.971259321913958
 21
12.31810579615907
 31
0.0
  0
LINE
  5
D5
330
1F
100
AcDbEntity
  8
0
  6
Continuous
 62
     7
370
    30
100
AcDbLine
 10
6.471259230864359
 20
7.818105887208703
 30
0.0
 11
1.971259321913974
 21
7.818105887208686
 31
0.0
  0
CIRCLE
  5
D6
330
1F
100
AcDbEntity
  8
0
  6
Continuous
 62
     7
370
    30
100
AcDbCircle
 10
4.221259276389159
 20
10.06810584168388
 30
0.0
 40
1.59219796974876
  0
CIRCLE
  5
D7
330
1F
100
AcDbEntity
  8
0
  6
Continuous
 62
     7
370
    30
100
AcDbCircle
 10
4.221259276389159
 20
10.06810584168388
 30
0.0
 40
1.58875105784086
  0
ARC
  5
D8
330
1F
100
AcDbEntity
  8
0
  6
Continuous
 62
     7
370
    30
100
AcDbCircle
 10
4.510321776389159
 20
10.06810584168388
 30
0.0
 40
0.0625
100
AcDbArc
 50
90.0
 51
270.0000000000008
  0
LINE
  5
D9
330
1F
100
AcDbEntity
  8
0
  6
Continuous
 62
     7
370
    30
100
AcDbLine
 10
4.369696777459816
 20
9.255605874419508
 30
0.0
 11
5.171979833584157
 21
9.255605874419511
 31
0.0
  0
ARC
  5
DA
330
1F
100
AcDbEntity
  8
0
  6
Continuous
 62
     7
370
    30
100
AcDbCircle
 10
5.171979860423319
 20
9.318105841683891
 30
0.0
 40
0.0625000000000018
100
AcDbArc
 50
270.0000000000008
 51
90.0
  0
ARC
  5
DB
330
1F
100
AcDbEntity
  8
0
  6
Continuous
 62
     7
370
    30
100
AcDbCircle
 10
4.369696776389162
 20
9.318105841683886
 30
0.0
 40
0.0625000000000018
100
AcDbArc
 50
90.0
 51
270.0000000000008
  0
CIRCLE
  5
DC
330
1F
100
AcDbEntity
  8
0
  6
Continuous
 62
     7
370
    30
100
AcDbCircle
 10
4.221259276389159
 20
10.06810584168388
 30
0.0
 40
1.578125
  0
LINE
  5
DD
330
1F
100
AcDbEntity
  8
0
  6
Continuous
 62
     7
370
    30
100
AcDbLine
 10
5.432196787535697
 20
10.13060584092857
 30
0.0
 11
4.510321783781074
 21
10.13060584092856
 31
0.0
  0
ARC
  5
DE
330
1F
100
AcDbEntity
  8
0
  6
Continuous
 62
     7
370
    30
100
AcDbCircle
 10
3.010321776389158
 20
10.06810584168388
 30
0.0
 40
0.0625000000000018
100
AcDbArc
 50
90.0
 51
270.0000000000012
  0
LINE
  5
DF
330
1F
100
AcDbEntity
  8
0
  6
Continuous
 62
     7
370
    30
100
AcDbLine
 10
3.010321765242621
 20
10.0056058424392
 30
0.0
 11
3.932196768997244
 21
10.00560584243921
 31
0.0
  0
LINE
  5
E0
330
1F
100
AcDbEntity
  8
0
  6
Continuous
 62
     7
370
    30
100
AcDbLine
 10
3.932196768997244
 20
10.13060584092856
 30
0.0
 11
3.010321765242621
 21
10.13060584092856
 31
0.0
  0
ARC
  5
E1
330
1F
100
AcDbEntity
  8
0
  6
Continuous
 62
     7
370
    30
100
AcDbCircle
 10
3.932196776389159
 20
10.06810584168388
 30
0.0
 40
0.0625000000000018
100
AcDbArc
 50
270.0000000000008
 51
90.0
  0
ARC
  5
E2
330
1F
100
AcDbEntity
  8
0
  6
Continuous
 62
     7
370
    30
100
AcDbCircle
 10
4.043148024230537
 20
11.28706120821183
 30
0.0
 40
0.0624999999999995
100
AcDbArc
 50
270.0000000000008
 51
109.3475425525538
  0
LINE
  5
E3
330
1F
100
AcDbEntity
  8
0
  6
Continuous
 62
     7
370
    30
100
AcDbLine
 10
4.02244192647748
 20
11.34603162564284
 30
0.0
 11
3.892712725120284
 21
11.30048027185597
 31
0.0
  0
LINE
  5
E4
330
1F
100
AcDbEntity
  8
0
  6
Continuous
 62
     7
370
    30
100
AcDbLine
 10
3.905654038954456
 20
11.22456120221287
 30
0.0
 11
4.04314803227878
 21
11.22456120221288
 31
0.0
  0
ARC
  5
E5
330
1F
100
AcDbEntity
  8
0
  6
Continuous
 62
     7
370
    30
100
AcDbCircle
 10
3.905654048741196
 20
11.26362370821183
 30
0.0
 40
0.0390625000000009
100
AcDbArc
 50
109.3475425525549
 51
270.0000000000008
  0
ARC
  5
E6
330
1F
100
AcDbEntity
  8
0
  6
Continuous
 62
     7
370
    30
100
AcDbCircle
 10
4.399370528547772
 20
11.28706120821183
 30
0.0
 40
0.0625000000000006
100
AcDbArc
 50
70.65245744744823
 51
270.0000000000008
  0
LINE
  5
E7
330
1F
100
AcDbEntity
  8
0
  6
Continuous
 62
     7
370
    30
100
AcDbLine
 10
4.536864513823854
 20
11.22456120221288
 30
0.0
 11
4.399370520499531
 21
11.22456120221288
 31
0.0
  0
LINE
  5
E8
330
1F
100
AcDbEntity
  8
0
  6
Continuous
 62
     7
370
    30
100
AcDbLine
 10
4.420076626300829
 20
11.34603162564284
 30
0.0
 11
4.549805827658025
 21
11.30048027185597
 31
0.0
  0
ARC
  5
E9
330
1F
100
AcDbEntity
  8
0
  6
Continuous
 62
     7
370
    30
100
AcDbCircle
 10
4.536864504037115
 20
11.26362370821183
 30
0.0
 40
0.0390625
100
AcDbArc
 50
270.0000000000008
 51
70.65245744744936
  0
ARC
  5
EA
330
1F
100
AcDbEntity
  8
0
  6
Continuous
 62
     7
370
    30
100
AcDbCircle
 10
4.39937052854778
 20
8.849150475155942
 30
0.0
 40
0.0624999999999992
100
AcDbArc
 50
90.0
 51
289.3475425525539
  0
LINE
  5
EB
330
1F
100
AcDbEntity
  8
0
  6
Continuous
 62
     7
370
    30
100
AcDbLine
 10
4.536864513823862
 20
8.911650481154898
 30
0.0
 11
4.399370520499538
 21
8.911650481154897
 31
0.0
  0
ARC
  5
EC
330
1F
100
AcDbEntity
  8
0
  6
Continuous
 62
     7
370
    30
100
AcDbCircle
 10
4.536864504037123
 20
8.872587975155942
 30
0.0
 40
0.0390625000000018
100
AcDbArc
 50
289.3475425525535
 51
90.0
  0
LINE
  5
ED
330
1F
100
AcDbEntity
  8
0
  6
Continuous
 62
     7
370
    30
100
AcDbLine
 10
4.420076626300838
 20
8.790180057724926
 30
0.0
 11
4.549805827658034
 21
8.835731411511803
 31
0.0
  0
ARC
  5
EE
330
1F
100
AcDbEntity
  8
0
  6
Continuous
 62
     7
370
    30
100
AcDbCircle
 10
4.043148024230545
 20
8.849150475155941
 30
0.0
 40
0.0625
100
AcDbArc
 50
250.6524574474469
 51
90.0
  0
LINE
  5
EF
330
1F
100
AcDbEntity
  8
0
  6
Continuous
 62
     7
370
    30
100
AcDbLine
 10
3.905654038954464
 20
8.911650481154893
 30
0.0
 11
4.043148032278787
 21
8.911650481154897
 31
0.0
  0
LINE
  5
F0
330
1F
100
AcDbEntity
  8
0
  6
Continuous
 62
     7
370
    30
100
AcDbLine
 10
4.022441926477489
 20
8.790180057724926
 30
0.0
 11
3.892712725120293
 21
8.835731411511797
 31
0.0
  0
ARC
  5
F1
330
1F
100
AcDbEntity
  8
0
  6
Continuous
 62
     7
370
    30
100
AcDbCircle
 10
3.905654048741203
 20
8.872587975155941
 30
0.0
 40
0.0390625000000005
100
AcDbArc
 50
90.0
 51
250.6524574474477
  0
LINE
  5
F2
330
1F
100
AcDbEntity
  8
0
  6
Continuous
 62
     7
370
    30
100
AcDbLine
 10
3.538346685453682
 20
11.00560587160354
 30
0.0
 11
4.072821775318502
 21
11.00560587160354
 31
0.0
  0
ARC
  5
F3
330
1F
100
AcDbEntity
  8
0
  6
Continuous
 62
     7
370
    30
100
AcDbCircle
 10
3.538346669311025
 20
11.06810584168388
 30
0.0
 40
0.0625
100
AcDbArc
 50
90.0
 51
270.0000000000008
  0
LINE
  5
F4
330
1F
100
AcDbEntity
  8
0
  6
Continuous
 62
     7
370
    30
100
AcDbLine
 10
4.072821775318501
 20
11.13060586092633
 30
0.0
 11
3.538346685453681
 21
11.13060586092633
 31
0.0
  0
ARC
  5
F5
330
1F
100
AcDbEntity
  8
0
  6
Continuous
 62
     7
370
    30
100
AcDbCircle
 10
4.072821776389155
 20
11.06810584168388
 30
0.0
 40
0.0625000000000018
100
AcDbArc
 50
270.0000000000008
 51
90.0
  0
LINE
  5
F6
330
1F
100
AcDbEntity
  8
0
  6
Continuous
 62
     7
370
    30
100
AcDbLine
 10
4.36969677745981
 20
11.00560587160354
 30
0.0
 11
4.90417186732463
 21
11.00560587160354
 31
0.0
  0
ARC
  5
F7
330
1F
100
AcDbEntity
  8
0
  6
Continuous
 62
     7
370
    30
100
AcDbCircle
 10
4.369696776389155
 20
11.06810584168389
 30
0.0
 40
0.0625
100
AcDbArc
 50
90.0
 51
270.0000000000008
  0
LINE
  5
F8
330
1F
100
AcDbEntity
  8
0
  6
Continuous
 62
     7
370
    30
100
AcDbLine
 10
4.904171867324629
 20
11.13060586092633
 30
0.0
 11
4.369696777459809
 21
11.13060586092633
 31
0.0
  0
ARC
  5
F9
330
1F
100
AcDbEntity
  8
0
  6
Continuous
 62
     7
370
    30
100
AcDbCircle
 10
4.904171883467286
 20
11.06810584168389
 30
0.0
 40
0.0625000000000018
100
AcDbArc
 50
270.0000000000017
 51
90.0
  0
LINE
  5
FA
330
1F
100
AcDbEntity
  8
0
  6
Continuous
 62
     7
370
    30
100
AcDbLine
 10
4.072821775318508
 20
9.130605811764233
 30
0.0
 11
3.538346685453688
 21
9.13060581176423
 31
0.0
  0
ARC
  5
FB
330
1F
100
AcDbEntity
  8
0
  6
Continuous
 62
     7
370
    30
100
AcDbCircle
 10
4.072821776389162
 20
9.068105841683886
 30
0.0
 40
0.0625
100
AcDbArc
 50
270.0000000000008
 51
90.0
  0
LINE
  5
FC
330
1F
100
AcDbEntity
  8
0
  6
Continuous
 62
     7
370
    30
100
AcDbLine
 10
3.538346685453689
 20
9.00560582244144
 30
0.0
 11
4.072821775318509
 21
9.005605822441442
 31
0.0
  0
ARC
  5
FD
330
1F
100
AcDbEntity
  8
0
  6
Continuous
 62
     7
370
    30
100
AcDbCircle
 10
3.538346669311032
 20
9.068105841683884
 30
0.0
 40
0.0625
100
AcDbArc
 50
90.00000000000079
 51
270.0000000000008
  0
LINE
  5
FE
330
1F
100
AcDbEntity
  8
0
  6
Continuous
 62
     7
370
    30
100
AcDbLine
 10
4.369696777459817
 20
9.005605822441442
 30
0.0
 11
4.904171867324637
 21
9.005605822441445
 31
0.0
  0
ARC
  5
FF
330
1F
100
AcDbEntity
  8
0
  6
Continuous
 62
     7
370
    30
100
AcDbCircle
 10
4.369696776389162
 20
9.068105841683888
 30
0.0
 40
0.0625
100
AcDbArc
 50
90.0
 51
270.0000000000008
  0
LINE
  5
100
330
1F
100
AcDbEntity
  8
0
  6
Continuous
 62
     7
370
    30
100
AcDbLine
 10
4.904171867324636
 20
9.130605811764235
 30
0.0
 11
4.369696777459816
 21
9.130605811764233
 31
0.0
  0
ARC
  5
101
330
1F
100
AcDbEntity
  8
0
  6
Continuous
 62
     7
370
    30
100
AcDbCircle
 10
4.904171883467293
 20
9.068105841683889
 30
0.0
 40
0.0625
100
AcDbArc
 50
270.0000000000008
 51
90.0
  0
LINE
  5
102
330
1F
100
AcDbEntity
  8
0
  6
Continuous
 62
     7
370
    30
100
AcDbLine
 10
5.171979833584156
 20
9.380605863742301
 30
0.0
 11
4.369696777459815
 21
9.380605863742299
 31
0.0
  0
LINE
  5
103
330
1F
100
AcDbEntity
  8
0
  6
Continuous
 62
     7
370
    30
100
AcDbLine
 10
3.270538719194167
 20
9.255605874419506
 30
0.0
 11
4.072821775318508
 21
9.255605874419508
 31
0.0
  0
ARC
  5
104
330
1F
100
AcDbEntity
  8
0
  6
Continuous
 62
     7
370
    30
100
AcDbCircle
 10
3.270538692355004
 20
9.318105841683884
 30
0.0
 40
0.0625
100
AcDbArc
 50
90.0000000000004
 51
270.0000000000008
  0
LINE
  5
105
330
1F
100
AcDbEntity
  8
0
  6
Continuous
 62
     7
370
    30
100
AcDbLine
 10
4.072821775318507
 20
9.380605863742299
 30
0.0
 11
3.270538719194166
 21
9.380605863742296
 31
0.0
  0
ARC
  5
106
330
1F
100
AcDbEntity
  8
0
  6
Continuous
 62
     7
370
    30
100
AcDbCircle
 10
4.072821776389162
 20
9.318105841683886
 30
0.0
 40
0.0625
100
AcDbArc
 50
270.0000000000008
 51
90.0
  0
LINE
  5
107
330
1F
100
AcDbEntity
  8
0
  6
Continuous
 62
     7
370
    30
100
AcDbLine
 10
5.171979833584151
 20
10.88060580894826
 30
0.0
 11
4.369696777459811
 21
10.88060580894826
 31
0.0
  0
ARC
  5
108
330
1F
100
AcDbEntity
  8
0
  6
Continuous
 62
     7
370
    30
100
AcDbCircle
 10
5.171979860423314
 20
10.81810584168389
 30
0.0
 40
0.0625000000000018
100
AcDbArc
 50
270.0000000000008
 51
90.0
  0
LINE
  5
109
330
1F
100
AcDbEntity
  8
0
  6
Continuous
 62
     7
370
    30
100
AcDbLine
 10
4.369696777459811
 20
10.75560581962547
 30
0.0
 11
5.171979833584152
 21
10.75560581962548
 31
0.0
  0
ARC
  5
10A
330
1F
100
AcDbEntity
  8
0
  6
Continuous
 62
     7
370
    30
100
AcDbCircle
 10
4.369696776389156
 20
10.81810584168389
 30
0.0
 40
0.0625000000000018
100
AcDbArc
 50
90.0
 51
270.0000000000008
  0
LINE
  5
10B
330
1F
100
AcDbEntity
  8
0
  6
Continuous
 62
     7
370
    30
100
AcDbLine
 10
3.11836779708564
 20
10.50560584097989
 30
0.0
 11
4.072821775318503
 21
10.50560584097989
 31
0.0
  0
ARC
  5
10C
330
1F
100
AcDbEntity
  8
0
  6
Continuous
 62
     7
370
    30
100
AcDbCircle
 10
3.118367790835728
 20
10.56810584168388
 30
0.0
 40
0.0625
100
AcDbArc
 50
90.0000000000004
 51
270.0000000000008
  0
LINE
  5
10D
330
1F
100
AcDbEntity
  8
0
  6
Continuous
 62
     7
370
    30
100
AcDbLine
 10
4.072821775318502
 20
10.63060583030268
 30
0.0
 11
3.118367797085639
 21
10.63060583030268
 31
0.0
  0
ARC
  5
10E
330
1F
100
AcDbEntity
  8
0
  6
Continuous
 62
     7
370
    30
100
AcDbCircle
 10
4.072821776389157
 20
10.56810584168388
 30
0.0
 40
0.0625
100
AcDbArc
 50
270.0000000000008
 51
90.0
  0
LINE
  5
10F
330
1F
100
AcDbEntity
  8
0
  6
Continuous
 62
     7
370
    30
100
AcDbLine
 10
3.118367797085643
 20
9.505605853065084
 30
0.0
 11
4.072821775318507
 21
9.505605853065089
 31
0.0
  0
ARC
  5
110
330
1F
100
AcDbEntity
  8
0
  6
Continuous
 62
     7
370
    30
100
AcDbCircle
 10
3.118367790835732
 20
9.568105841683882
 30
0.0
 40
0.0625000000000018
100
AcDbArc
 50
90.0
 51
270.0000000000008
  0
LINE
  5
111
330
1F
100
AcDbEntity
  8
0
  6
Continuous
 62
     7
370
    30
100
AcDbLine
 10
4.072821775318506
 20
9.630605842387879
 30
0.0
 11
3.118367797085643
 21
9.630605842387874
 31
0.0
  0
ARC
  5
112
330
1F
100
AcDbEntity
  8
0
  6
Continuous
 62
     7
370
    30
100
AcDbCircle
 10
4.072821776389161
 20
9.568105841683888
 30
0.0
 40
0.0625000000000018
100
AcDbArc
 50
270.0000000000008
 51
90.0
  0
LINE
  5
113
330
1F
100
AcDbEntity
  8
0
  6
Continuous
 62
     7
370
    30
100
AcDbLine
 10
4.369696777459812
 20
10.50560584097989
 30
0.0
 11
5.324150755692675
 21
10.5056058409799
 31
0.0
  0
ARC
  5
114
330
1F
100
AcDbEntity
  8
0
  6
Continuous
 62
     7
370
    30
100
AcDbCircle
 10
4.369696776389157
 20
10.56810584168388
 30
0.0
 40
0.0625000000000018
100
AcDbArc
 50
90.0
 51
270.0000000000008
  0
LINE
  5
115
330
1F
100
AcDbEntity
  8
0
  6
Continuous
 62
     7
370
    30
100
AcDbLine
 10
5.324150755692675
 20
10.63060583030269
 30
0.0
 11
4.369696777459811
 21
10.63060583030268
 31
0.0
  0
ARC
  5
116
330
1F
100
AcDbEntity
  8
0
  6
Continuous
 62
     7
370
    30
100
AcDbCircle
 10
5.324150761942586
 20
10.56810584168389
 30
0.0
 40
0.0625000000000018
100
AcDbArc
 50
270.0000000000008
 51
90.0
  0
LINE
  5
117
330
1F
100
AcDbEntity
  8
0
  6
Continuous
 62
     7
370
    30
100
AcDbLine
 10
5.324150755692678
 20
9.630605842387883
 30
0.0
 11
4.369696777459814
 21
9.630605842387879
 31
0.0
  0
ARC
  5
118
330
1F
100
AcDbEntity
  8
0
  6
Continuous
 62
     7
370
    30
100
AcDbCircle
 10
5.32415076194259
 20
9.568105841683891
 30
0.0
 40
0.0625
100
AcDbArc
 50
270.0000000000008
 51
90.0
  0
LINE
  5
119
330
1F
100
AcDbEntity
  8
0
  6
Continuous
 62
     7
370
    30
100
AcDbLine
 10
4.369696777459815
 20
9.505605853065089
 30
0.0
 11
5.324150755692679
 21
9.505605853065093
 31
0.0
  0
ARC
  5
11A
330
1F
100
AcDbEntity
  8
0
  6
Continuous
 62
     7
370
    30
100
AcDbCircle
 10
4.369696776389161
 20
9.568105841683888
 30
0.0
 40
0.0625
100
AcDbArc
 50
90.0
 51
270.0000000000008
  0
LINE
  5
11B
330
1F
100
AcDbEntity
  8
0
  6
Continuous
 62
     7
370
    30
100
AcDbLine
 10
3.270538719194162
 20
10.75560581962547
 30
0.0
 11
4.072821775318502
 21
10.75560581962547
 31
0.0
  0
ARC
  5
11C
330
1F
100
AcDbEntity
  8
0
  6
Continuous
 62
     7
370
    30
100
AcDbCircle
 10
3.270538692354999
 20
10.81810584168388
 30
0.0
 40
0.0625000000000018
100
AcDbArc
 50
90.00000000000079
 51
270.0000000000008
  0
LINE
  5
11D
330
1F
100
AcDbEntity
  8
0
  6
Continuous
 62
     7
370
    30
100
AcDbLine
 10
4.072821775318502
 20
10.88060580894826
 30
0.0
 11
3.270538719194161
 21
10.88060580894826
 31
0.0
  0
ARC
  5
11E
330
1F
100
AcDbEntity
  8
0
  6
Continuous
 62
     7
370
    30
100
AcDbCircle
 10
4.072821776389156
 20
10.81810584168389
 30
0.0
 40
0.0625000000000018
100
AcDbArc
 50
270.0000000000008
 51
90.0
  0
ARC
  5
11F
330
1F
100
AcDbEntity
  8
0
  6
Continuous
 62
     7
370
    30
100
AcDbCircle
 10
3.010321776389158
 20
10.24704749138294
 30
0.0
 40
0.0625
100
AcDbArc
 50
90.0
 51
270.0000000000012
  0
LINE
  5
120
330
1F
100
AcDbEntity
  8
0
  6
Continuous
 62
     7
370
    30
100
AcDbLine
 10
3.010321765242621
 20
10.18454748987336
 30
0.0
 11
3.932196768997244
 21
10.18454748987336
 31
0.0
  0
LINE
  5
121
330
1F
100
AcDbEntity
  8
0
  6
Continuous
 62
     7
370
    30
100
AcDbLine
 10
3.932196768997243
 20
10.30954749752927
 30
0.0
 11
3.01032176524262
 21
10.30954749752927
 31
0.0
  0
ARC
  5
122
330
1F
100
AcDbEntity
  8
0
  6
Continuous
 62
     7
370
    30
100
AcDbCircle
 10
3.932196776389158
 20
10.24704749138294
 30
0.0
 40
0.0625000000000018
100
AcDbArc
 50
270.0000000000008
 51
90.0000000000004
  0
ARC
  5
123
330
1F
100
AcDbEntity
  8
0
  6
Continuous
 62
     7
370
    30
100
AcDbCircle
 10
3.01032177638916
 20
9.870378414690705
 30
0.0
 40
0.0625
100
AcDbArc
 50
90.00000000000079
 51
270.0000000000008
  0
LINE
  5
124
330
1F
100
AcDbEntity
  8
0
  6
Continuous
 62
     7
370
    30
100
AcDbLine
 10
3.932196768997245
 20
9.932878418009291
 30
0.0
 11
3.010321765242621
 21
9.932878418009288
 31
0.0
  0
ARC
  5
125
330
1F
100
AcDbEntity
  8
0
  6
Continuous
 62
     7
370
    30
100
AcDbCircle
 10
3.932196776389159
 20
9.870378414690708
 30
0.0
 40
0.0625
100
AcDbArc
 50
270.0000000000012
 51
90.0
  0
LINE
  5
126
330
1F
100
AcDbEntity
  8
0
  6
Continuous
 62
     7
370
    30
100
AcDbLine
 10
3.010321765242622
 20
9.807878419519935
 30
0.0
 11
3.932196768997246
 21
9.807878419519941
 31
0.0
  0
LINE
  5
127
330
1F
100
AcDbEntity
  8
0
  6
Continuous
 62
     7
370
    30
100
AcDbLine
 10
4.510321783781073
 20
10.25560584400119
 30
0.0
 11
5.432196787535696
 21
10.2556058440012
 31
0.0
  0
ARC
  5
128
330
1F
100
AcDbEntity
  8
0
  6
Continuous
 62
     7
370
    30
100
AcDbCircle
 10
4.510321776389158
 20
10.31810584168389
 30
0.0
 40
0.0625000000000018
100
AcDbArc
 50
90.0
 51
270.0000000000008
  0
LINE
  5
129
330
1F
100
AcDbEntity
  8
0
  6
Continuous
 62
     7
370
    30
100
AcDbLine
 10
5.432196787535696
 20
10.38060585165711
 30
0.0
 11
4.510321783781073
 21
10.3806058516571
 31
0.0
  0
ARC
  5
12A
330
1F
100
AcDbEntity
  8
0
  6
Continuous
 62
     7
370
    30
100
AcDbCircle
 10
5.432196776389158
 20
10.31810584168389
 30
0.0
 40
0.0625000000000018
100
AcDbArc
 50
270.0000000000008
 51
90.0
  0
LINE
  5
12B
330
1F
100
AcDbEntity
  8
0
  6
Continuous
 62
     7
370
    30
100
AcDbLine
 10
5.432196787535698
 20
9.880605839366584
 30
0.0
 11
4.510321783781074
 21
9.88060583936658
 31
0.0
  0
ARC
  5
12C
330
1F
100
AcDbEntity
  8
0
  6
Continuous
 62
     7
370
    30
100
AcDbCircle
 10
5.432196776389159
 20
9.818105841683891
 30
0.0
 40
0.0625
100
AcDbArc
 50
270.0000000000025
 51
90.0
  0
LINE
  5
12D
330
1F
100
AcDbEntity
  8
0
  6
Continuous
 62
     7
370
    30
100
AcDbLine
 10
4.510321783781074
 20
9.755605831710669
 30
0.0
 11
5.432196787535698
 21
9.755605831710672
 31
0.0
  0
ARC
  5
12E
330
1F
100
AcDbEntity
  8
0
  6
Continuous
 62
     7
370
    30
100
AcDbCircle
 10
4.51032177638916
 20
9.818105841683888
 30
0.0
 40
0.0625000000000018
100
AcDbArc
 50
90.0
 51
270.0000000000008
  0
ARC
  5
12F
330
1F
100
AcDbEntity
  8
0
  6
Continuous
 62
     7
370
    30
100
AcDbCircle
 10
5.432196776389159
 20
10.06810584168389
 30
0.0
 40
0.0625000000000018
100
AcDbArc
 50
270.0000000000008
 51
90.0
  0
LINE
  5
130
330
1F
100
AcDbEntity
  8
0
  6
Continuous
 62
     7
370
    30
100
AcDbLine
 10
4.510321783781074
 20
10.00560584243921
 30
0.0
 11
5.432196787535697
 21
10.00560584243921
 31
0.0
  0
LINE
  5
131
330
1F
100
AcDbEntity
  8
0
  6
Continuous
 62
     7
370
    30
100
AcDbLine
 10
4.949948571841567
 20
11.08023274950748
 30
0.0
 11
4.959609540237235
 21
11.0969660495363
 31
0.0
  0
LINE
  5
132
330
1F
100
AcDbEntity
  8
0
  6
Continuous
 62
     7
370
    30
100
AcDbLine
 10
4.9666218125642
 20
11.07060639404529
 30
0.0
 11
4.949948571841567
 21
11.08023274950748
 31
0.0
  0
LINE
  5
133
330
1F
100
AcDbEntity
  8
0
  6
Continuous
 62
     7
370
    30
100
AcDbLine
 10
2.980387077717353
 20
9.925243360376791
 30
0.0
 11
2.980387077717353
 21
9.818105844705181
 31
0.0
  0
LINE
  5
134
330
1F
100
AcDbEntity
  8
0
  6
Continuous
 62
     7
370
    30
100
AcDbLine
 10
2.980387077717353
 20
9.818105844705181
 30
0.0
 11
2.976060607697105
 21
9.818105844705181
 31
0.0
  0
LINE
  5
135
330
1F
100
AcDbEntity
  8
0
  6
Continuous
 62
     7
370
    30
100
AcDbLine
 10
2.980387077717352
 20
10.30191243073021
 30
0.0
 11
2.980387077717352
 21
10.19310584017323
 31
0.0
  0
LINE
  5
136
330
1F
100
AcDbEntity
  8
0
  6
Continuous
 62
     7
370
    30
100
AcDbLine
 10
2.980387077717352
 20
10.19310584017323
 30
0.0
 11
2.978753669919951
 21
10.19310584017323
 31
0.0
  0
LINE
  5
137
330
1F
100
AcDbEntity
  8
0
  6
Continuous
 62
     7
370
    30
100
AcDbLine
 10
4.959609540237241
 20
9.039245633831473
 30
0.0
 11
4.949948571841573
 21
9.055978933860297
 31
0.0
  0
LINE
  5
138
330
1F
100
AcDbEntity
  8
0
  6
Continuous
 62
     7
370
    30
100
AcDbLine
 10
4.949948571841573
 20
9.055978933860297
 30
0.0
 11
4.966621812564206
 21
9.065605289322483
 31
0.0
  0
LWPOLYLINE
  5
139
330
1F
100
AcDbEntity
  8
0
  6
Continuous
 62
     7
370
    30
100
AcDbPolyline
 90
        5
 70
   128
 43
0.0
 10
2.980387077717353
 20
9.818105844705181
 10
2.980183213405745
 20
9.818032988880151
 10
2.979572500460753
 20
9.81781476973437
 10
2.978557725516853
 20
9.817452213922646
 10
2.977619216358591
 20
9.817116882796421
  0
ARC
  5
13A
330
1F
100
AcDbEntity
  8
0
  6
Continuous
 62
     7
370
    30
100
AcDbCircle
 10
4.221259276389159
 20
10.06810584168388
 30
0.0
 40
0.96875
100
AcDbArc
 50
0.0000000000002036
 51
3.699071063165133
  0
ARC
  5
13B
330
1F
100
AcDbEntity
  8
0
  6
Continuous
 62
     7
370
    30
100
AcDbCircle
 10
4.221259276389159
 20
10.06810584168388
 30
0.0
 40
0.9687500000000003
100
AcDbArc
 50
11.15993687218554
 51
18.81906336898817
  0
ARC
  5
13C
330
1F
100
AcDbEntity
  8
0
  6
Continuous
 62
     7
370
    30
100
AcDbCircle
 10
4.221259276389159
 20
10.06810584168388
 30
0.0
 40
0.9687500000000001
100
AcDbArc
 50
26.8472133260045
 51
35.49593265025178
  0
ARC
  5
13D
330
1F
100
AcDbEntity
  8
0
  6
Continuous
 62
     7
370
    30
100
AcDbCircle
 10
4.221259276389159
 20
10.06810584168388
 30
0.0
 40
0.9687500000000003
100
AcDbArc
 50
45.21792242230904
 51
57.00411452642058
  0
ARC
  5
13E
330
1F
100
AcDbEntity
  8
0
  6
Continuous
 62
     7
370
    30
100
AcDbCircle
 10
4.221259276389159
 20
10.06810584168388
 30
0.0
 40
0.9687499999999992
100
AcDbArc
 50
75.4074493979668
 51
84.22583185131507
  0
ARC
  5
13F
330
1F
100
AcDbEntity
  8
0
  6
Continuous
 62
     7
370
    30
100
AcDbCircle
 10
4.221259276389159
 20
10.06810584168388
 30
0.0
 40
0.9687500000000001
100
AcDbArc
 50
95.77416814868533
 51
104.5925506020336
  0
ARC
  5
140
330
1F
100
AcDbEntity
  8
0
  6
Continuous
 62
     7
370
    30
100
AcDbCircle
 10
4.221259276389159
 20
10.06810584168388
 30
0.0
 40
0.9687500000000001
100
AcDbArc
 50
122.9958854735797
 51
134.7913246600785
  0
ARC
  5
141
330
1F
100
AcDbEntity
  8
0
  6
Continuous
 62
     7
370
    30
100
AcDbCircle
 10
4.221259276389159
 20
10.06810584168388
 30
0.0
 40
0.9687500000000007
100
AcDbArc
 50
144.5040673497485
 51
153.1527866739958
  0
ARC
  5
142
330
1F
100
AcDbEntity
  8
0
  6
Continuous
 62
     7
370
    30
100
AcDbCircle
 10
4.221259276389159
 20
10.06810584168388
 30
0.0
 40
0.9687500000000003
100
AcDbArc
 50
165.5680424330201
 51
173.0964798437783
  0
ARC
  5
143
330
1F
100
AcDbEntity
  8
0
  6
Continuous
 62
     7
370
    30
100
AcDbCircle
 10
4.221259276389159
 20
10.06810584168388
 30
0.0
 40
0.9687500000000005
100
AcDbArc
 50
176.3009289368351
 51
183.699071063166
  0
ARC
  5
144
330
1F
100
AcDbEntity
  8
0
  6
Continuous
 62
     7
370
    30
100
AcDbCircle
 10
4.221259276389159
 20
10.06810584168388
 30
0.0
 40
0.9687500000000003
100
AcDbArc
 50
188.0240989908138
 51
195.5822759497017
  0
ARC
  5
145
330
1F
100
AcDbEntity
  8
0
  6
Continuous
 62
     7
370
    30
100
AcDbCircle
 10
4.221259276389159
 20
10.06810584168388
 30
0.0
 40
0.9687500000000005
100
AcDbArc
 50
206.8472133260054
 51
215.4959326502527
  0
ARC
  5
146
330
1F
100
AcDbEntity
  8
0
  6
Continuous
 62
     7
370
    30
100
AcDbCircle
 10
4.221259276389159
 20
10.06810584168388
 30
0.0
 40
0.96875
100
AcDbArc
 50
225.2086753399226
 51
237.0041145264215
  0
ARC
  5
147
330
1F
100
AcDbEntity
  8
0
  6
Continuous
 62
     7
370
    30
100
AcDbCircle
 10
4.221259276389159
 20
10.06810584168388
 30
0.0
 40
0.9687500000000007
100
AcDbArc
 50
255.4074493979676
 51
264.2258318513159
  0
ARC
  5
148
330
1F
100
AcDbEntity
  8
0
  6
Continuous
 62
     7
370
    30
100
AcDbCircle
 10
4.221259276389159
 20
10.06810584168388
 30
0.0
 40
0.9687500000000001
100
AcDbArc
 50
275.7741681486862
 51
284.5925506020344
  0
ARC
  5
149
330
1F
100
AcDbEntity
  8
0
  6
Continuous
 62
     7
370
    30
100
AcDbCircle
 10
4.221259276389159
 20
10.06810584168388
 30
0.0
 40
0.9687500000000014
100
AcDbArc
 50
302.9958854735805
 51
314.7895726590767
  0
ARC
  5
14A
330
1F
100
AcDbEntity
  8
0
  6
Continuous
 62
     7
370
    30
100
AcDbCircle
 10
4.221259276389159
 20
10.06810584168388
 30
0.0
 40
0.9687500000000007
100
AcDbArc
 50
324.5040673497493
 51
333.1527866739967
  0
ARC
  5
14B
330
1F
100
AcDbEntity
  8
0
  6
Continuous
 62
     7
370
    30
100
AcDbCircle
 10
4.221259276389159
 20
10.06810584168388
 30
0.0
 40
0.9687500000000003
100
AcDbArc
 50
341.180936631013
 51
348.8400631278156
  0
ARC
  5
14C
330
1F
100
AcDbEntity
  8
0
  6
Continuous
 62
     7
370
    30
100
AcDbCircle
 10
4.221259276389159
 20
10.06810584168388
 30
0.0
 40
0.9687500000000005
100
AcDbArc
 50
356.300928936836
 51
0.0000000000002036
  0
LWPOLYLINE
  5
14D
330
1F
100
AcDbEntity
  8
0
  6
Continuous
 62
     7
370
    30
100
AcDbPolyline
 90
       10
 70
   128
 43
0.0
 10
4.875284954362053
 20
9.353454217400436
 10
4.875124722879727
 20
9.353629335377458
 10
4.874648795044352
 20
9.354149336037034
 10
4.873871690688195
 20
9.35499845289463
 10
4.872817022871807
 20
9.356150946247595
 10
4.871516764559169
 20
9.357571689835044
 10
4.870010588625309
 20
9.35921749082261
 10
4.868344034544151
 20
9.361038483119685
 10
4.866567921728623
 20
9.362979227366709
 10
4.864736149556079
 20
9.36498083757727
  0
SPLINE
  5
14E
330
1F
100
AcDbEntity
  8
0
  6
Continuous
 62
     7
370
    30
100
AcDbSpline
210
0.0
220
0.0
230
1.0
 70
     8
 71
     3
 72
    16
 73
    12
 74
     0
 42
0.0000000001
 43
0.0000000001
 40
0.0
 40
0.0
 40
0.0
 40
0.0
 40
0.2499999999999982
 40
0.2499999999999982
 40
0.4999999999999965
 40
0.4999999999999965
 40
0.7499999999999947
 40
0.7499999999999947
 40
0.8749999999999973
 40
0.8749999999999973
 40
1.0
 40
1.0
 40
1.0
 40
1.0
 10
4.864736160200849
 20
9.364980841683889
 30
0.0
 10
4.867946391588556
 20
9.366449790796547
 30
0.0
 10
4.871129477679134
 20
9.367926531083952
 30
0.0
 10
4.877435262560745
 20
9.370892117099083
 30
0.0
 10
4.880580564981372
 20
9.372392021405952
 30
0.0
 10
4.886651703768385
 20
9.375325667693566
 30
0.0
 10
4.889636834566344
 20
9.376788973918737
 30
0.0
 10
4.89353896561934
 20
9.378722886726102
 30
0.0
 10
4.894763432156424
 20
9.379333759398093
 30
0.0
 10
4.896655072794354
 20
9.38028095322236
 30
0.0
 10
4.897300140538661
 20
9.380605841683889
 30
0.0
 10
4.89730014053866
 20
9.380605841683889
 30
0.0
  0
SPLINE
  5
14F
330
1F
100
AcDbEntity
  8
0
  6
Continuous
 62
     7
370
    30
100
AcDbSpline
210
0.0
220
0.0
230
1.0
 70
     8
 71
     3
 72
    16
 73
    12
 74
     0
 42
0.0000000001
 43
0.0000000001
 40
0.0
 40
0.0
 40
0.0
 40
0.0
 40
0.1250000000000027
 40
0.1250000000000027
 40
0.2500000000000053
 40
0.2500000000000053
 40
0.5000000000000036
 40
0.5000000000000036
 40
0.7500000000000018
 40
0.7500000000000018
 40
1.0
 40
1.0
 40
1.0
 40
1.0
 10
4.897300140538654
 20
10.75560584168389
 30
0.0
 10
4.897300140538654
 20
10.75560584168389
 30
0.0
 10
4.896666202053348
 20
10.75592514536337
 30
0.0
 10
4.894769345156153
 20
10.75687497514014
 30
0.0
 10
4.893561229663183
 20
10.75747773818095
 30
0.0
 10
4.88963012454177
 20
10.75942608322791
 30
0.0
 10
4.886671032944981
 20
10.76087662515671
 30
0.0
 10
4.880584680770746
 20
10.76381772339975
 30
0.0
 10
4.877472066149493
 20
10.76530213595983
 30
0.0
 10
4.871149151286357
 20
10.76827602050547
 30
0.0
 10
4.867946107803023
 20
10.76976202242682
 30
0.0
 10
4.864736160200844
 20
10.77123084168389
 30
0.0
  0
LWPOLYLINE
  5
150
330
1F
100
AcDbEntity
  8
0
  6
Continuous
 62
     7
370
    30
100
AcDbPolyline
 90
       10
 70
   128
 43
0.0
 10
4.875284954362048
 20
10.78275746596734
 10
4.875124722879722
 20
10.78258234799032
 10
4.874648795044348
 20
10.78206234733074
 10
4.873871690688191
 20
10.78121323047315
 10
4.872817022871803
 20
10.78006073712018
 10
4.871516764559165
 20
10.77863999353273
 10
4.870010588625304
 20
10.77699419254517
 10
4.868344034544146
 20
10.77517320024809
 10
4.86656792172862
 20
10.77323245600107
 10
4.864736149556074
 20
10.77123084579051
  0
ARC
  5
151
330
1F
100
AcDbEntity
  8
0
  6
Continuous
 62
     7
370
    30
100
AcDbCircle
 10
4.096259276389159
 20
10.06810584168388
 30
0.0
 40
0.6874999999999999
100
AcDbArc
 50
125.0968012275848
 51
140.4788036413581
  0
ARC
  5
152
330
1F
100
AcDbEntity
  8
0
  6
Continuous
 62
     7
370
    30
100
AcDbCircle
 10
4.096259276389159
 20
10.06810584168388
 30
0.0
 40
0.6874999999999997
100
AcDbArc
 50
159.4400132038849
 51
170.2488274958674
  0
ARC
  5
153
330
1F
100
AcDbEntity
  8
0
  6
Continuous
 62
     7
370
    30
100
AcDbCircle
 10
4.096259276389159
 20
10.06810584168388
 30
0.0
 40
0.6875000000000002
100
AcDbArc
 50
174.7840914295462
 51
185.2159085704552
  0
ARC
  5
154
330
1F
100
AcDbEntity
  8
0
  6
Continuous
 62
     7
370
    30
100
AcDbCircle
 10
4.096259276389159
 20
10.06810584168388
 30
0.0
 40
0.6875000000000002
100
AcDbArc
 50
191.3437250448028
 51
202.2415813752203
  0
ARC
  5
155
330
1F
100
AcDbEntity
  8
0
  6
Continuous
 62
     7
370
    30
100
AcDbCircle
 10
4.096259276389159
 20
10.06810584168388
 30
0.0
 40
0.6875000000000014
100
AcDbArc
 50
219.5211963586433
 51
234.9031987724166
  0
ARC
  5
156
330
1F
100
AcDbEntity
  8
0
  6
Continuous
 62
     7
370
    30
100
AcDbCircle
 10
4.221259276389159
 20
10.06810584168388
 30
0.0
 40
2.285436706131734
100
AcDbArc
 50
79.92552119253066
 51
100.0804699713341
  0
ARC
  5
157
330
1F
100
AcDbEntity
  8
0
  6
Continuous
 62
     7
370
    30
100
AcDbCircle
 10
4.221259276389159
 20
10.06810584168388
 30
0.0
 40
2.285436706131735
100
AcDbArc
 50
169.9250225848156
 51
190.0751391021049
  0
ARC
  5
158
330
1F
100
AcDbEntity
  8
0
  6
Continuous
 62
     7
370
    30
100
AcDbCircle
 10
4.221259276389159
 20
10.06810584168388
 30
0.0
 40
2.285436706131737
100
AcDbArc
 50
259.9199586051027
 51
280.0743902610061
  0
ARC
  5
159
330
1F
100
AcDbEntity
  8
0
  6
Continuous
 62
     7
370
    30
100
AcDbCircle
 10
4.221259276389159
 20
10.06810584168388
 30
0.0
 40
0.9843750000000008
100
AcDbArc
 50
356.3597241243858
 51
0.0000000000002036
  0
ARC
  5
15A
330
1F
100
AcDbEntity
  8
0
  6
Continuous
 62
     7
370
    30
100
AcDbCircle
 10
4.221259276389159
 20
10.06810584168388
 30
0.0
 40
0.9843750000000008
100
AcDbArc
 50
341.4905950184646
 51
349.0194245723889
  0
ARC
  5
15B
330
1F
100
AcDbEntity
  8
0
  6
Continuous
 62
     7
370
    30
100
AcDbCircle
 10
4.221259276389159
 20
10.06810584168388
 30
0.0
 40
0.9843750000000007
100
AcDbArc
 50
325.1500954209545
 51
333.612200038758
  0
ARC
  5
15C
330
1F
100
AcDbEntity
  8
0
  6
Continuous
 62
     7
370
    30
100
AcDbCircle
 10
4.221259276389159
 20
10.06810584168388
 30
0.0
 40
0.9843750000000015
100
AcDbArc
 50
304.3712560240809
 51
315.7002071069928
  0
ARC
  5
15D
330
1F
100
AcDbEntity
  8
0
  6
Continuous
 62
     7
370
    30
100
AcDbCircle
 10
4.221259276389159
 20
10.06810584168388
 30
0.0
 40
0.9843749999999998
100
AcDbArc
 50
275.1939198666727
 51
287.7527901619477
  0
ARC
  5
15E
330
1F
100
AcDbEntity
  8
0
  6
Continuous
 62
     7
370
    30
100
AcDbCircle
 10
4.221259276389159
 20
10.06810584168388
 30
0.0
 40
0.984375000000001
100
AcDbArc
 50
252.2472098380543
 51
264.8060801333294
  0
ARC
  5
15F
330
1F
100
AcDbEntity
  8
0
  6
Continuous
 62
     7
370
    30
100
AcDbCircle
 10
4.221259276389159
 20
10.06810584168388
 30
0.0
 40
0.9843749999999996
100
AcDbArc
 50
224.2997928930092
 51
235.628743975921
  0
ARC
  5
160
330
1F
100
AcDbEntity
  8
0
  6
Continuous
 62
     7
370
    30
100
AcDbCircle
 10
4.221259276389159
 20
10.06810584168388
 30
0.0
 40
0.9843750000000007
100
AcDbArc
 50
206.387799961244
 51
214.8499045790475
  0
ARC
  5
161
330
1F
100
AcDbEntity
  8
0
  6
Continuous
 62
     7
370
    30
100
AcDbCircle
 10
4.221259276389159
 20
10.06810584168388
 30
0.0
 40
0.9843750000000005
100
AcDbArc
 50
187.8959131753886
 51
195.3288098038902
  0
ARC
  5
162
330
1F
100
AcDbEntity
  8
0
  6
Continuous
 62
     7
370
    30
100
AcDbCircle
 10
4.221259276389159
 20
10.06810584168388
 30
0.0
 40
0.9843750000000003
100
AcDbArc
 50
176.3597241243849
 51
183.6402758756162
  0
ARC
  5
163
330
1F
100
AcDbEntity
  8
0
  6
Continuous
 62
     7
370
    30
100
AcDbCircle
 10
4.221259276389159
 20
10.06810584168388
 30
0.0
 40
0.9843750000000001
100
AcDbArc
 50
165.8019697914043
 51
173.2065801654836
  0
ARC
  5
164
330
1F
100
AcDbEntity
  8
0
  6
Continuous
 62
     7
370
    30
100
AcDbCircle
 10
4.221259276389159
 20
10.06810584168388
 30
0.0
 40
0.9843750000000007
100
AcDbArc
 50
145.1500954209536
 51
153.6122000387572
  0
ARC
  5
165
330
1F
100
AcDbEntity
  8
0
  6
Continuous
 62
     7
370
    30
100
AcDbCircle
 10
4.221259276389159
 20
10.06810584168388
 30
0.0
 40
0.9843750000000001
100
AcDbArc
 50
124.3712560240802
 51
135.700207106992
  0
ARC
  5
166
330
1F
100
AcDbEntity
  8
0
  6
Continuous
 62
     7
370
    30
100
AcDbCircle
 10
4.221259276389159
 20
10.06810584168388
 30
0.0
 40
0.9843749999999991
100
AcDbArc
 50
95.19391986667189
 51
107.7527901619468
  0
ARC
  5
167
330
1F
100
AcDbEntity
  8
0
  6
Continuous
 62
     7
370
    30
100
AcDbCircle
 10
4.221259276389159
 20
10.06810584168388
 30
0.0
 40
0.984375000000001
100
AcDbArc
 50
72.24720983805352
 51
84.80608013332853
  0
ARC
  5
168
330
1F
100
AcDbEntity
  8
0
  6
Continuous
 62
     7
370
    30
100
AcDbCircle
 10
4.221259276389159
 20
10.06810584168388
 30
0.0
 40
0.9843749999999998
100
AcDbArc
 50
44.29979289300837
 51
55.62874397592018
  0
ARC
  5
169
330
1F
100
AcDbEntity
  8
0
  6
Continuous
 62
     7
370
    30
100
AcDbCircle
 10
4.221259276389159
 20
10.06810584168388
 30
0.0
 40
0.9843750000000003
100
AcDbArc
 50
26.3877999612431
 51
34.8499045790466
  0
ARC
  5
16A
330
1F
100
AcDbEntity
  8
0
  6
Continuous
 62
     7
370
    30
100
AcDbCircle
 10
4.221259276389159
 20
10.06810584168388
 30
0.0
 40
0.984375000000001
100
AcDbArc
 50
10.98057542761235
 51
18.50940498153659
  0
ARC
  5
16B
330
1F
100
AcDbEntity
  8
0
  6
Continuous
 62
     7
370
    30
100
AcDbCircle
 10
4.221259276389159
 20
10.06810584168388
 30
0.0
 40
0.9843750000000008
100
AcDbArc
 50
0.0000000000002036
 51
3.640275875615365
  0
ARC
  5
16C
330
1F
100
AcDbEntity
  8
0
  6
Continuous
 62
     7
370
    30
100
AcDbCircle
 10
4.221259276389159
 20
10.06810584168388
 30
0.0
 40
0.9531249999999996
100
AcDbArc
 50
47.53627504829137
 51
58.48014142011655
  0
ARC
  5
16D
330
1F
100
AcDbEntity
  8
0
  6
Continuous
 62
     7
370
    30
100
AcDbCircle
 10
4.221259276389159
 20
10.06810584168388
 30
0.0
 40
0.9531249999999994
100
AcDbArc
 50
79.6111421845307
 51
82.94023527947969
  0
ARC
  5
16E
330
1F
100
AcDbEntity
  8
0
  6
Continuous
 62
     7
370
    30
100
AcDbCircle
 10
4.221259276389159
 20
10.06810584168388
 30
0.0
 40
0.9531250000000003
100
AcDbArc
 50
97.0597647205207
 51
100.3888578154697
  0
ARC
  5
16F
330
1F
100
AcDbEntity
  8
0
  6
Continuous
 62
     7
370
    30
100
AcDbCircle
 10
4.221259276389159
 20
10.06810584168388
 30
0.0
 40
0.9531250000000001
100
AcDbArc
 50
121.5198585798838
 51
133.8371353095374
  0
ARC
  5
170
330
1F
100
AcDbEntity
  8
0
  6
Continuous
 62
     7
370
    30
100
AcDbCircle
 10
4.221259276389159
 20
10.06810584168388
 30
0.0
 40
0.9531250000000003
100
AcDbArc
 50
143.8313576524214
 51
152.6763446357047
  0
ARC
  5
171
330
1F
100
AcDbEntity
  8
0
  6
Continuous
 62
     7
370
    30
100
AcDbCircle
 10
4.221259276389159
 20
10.06810584168388
 30
0.0
 40
0.9531250000000001
100
AcDbArc
 50
165.3261869872821
 51
172.9827427747156
  0
ARC
  5
172
330
1F
100
AcDbEntity
  8
0
  6
Continuous
 62
     7
370
    30
100
AcDbCircle
 10
4.221259276389159
 20
10.06810584168388
 30
0.0
 40
0.9531249999999998
100
AcDbArc
 50
176.2402019426627
 51
183.7597980573385
  0
ARC
  5
173
330
1F
100
AcDbEntity
  8
0
  6
Continuous
 62
     7
370
    30
100
AcDbCircle
 10
4.221259276389159
 20
10.06810584168388
 30
0.0
 40
0.9531250000000003
100
AcDbArc
 50
188.1565300792429
 51
195.8443811818147
  0
ARC
  5
174
330
1F
100
AcDbEntity
  8
0
  6
Continuous
 62
     7
370
    30
100
AcDbCircle
 10
4.221259276389159
 20
10.06810584168388
 30
0.0
 40
0.9531250000000003
100
AcDbArc
 50
207.3236553642965
 51
216.1686423475798
  0
ARC
  5
175
330
1F
100
AcDbEntity
  8
0
  6
Continuous
 62
     7
370
    30
100
AcDbCircle
 10
4.221259276389159
 20
10.06810584168388
 30
0.0
 40
0.9531249999999998
100
AcDbArc
 50
226.1628646904638
 51
238.4801414201174
  0
ARC
  5
176
330
1F
100
AcDbEntity
  8
0
  6
Continuous
 62
     7
370
    30
100
AcDbCircle
 10
4.221259276389159
 20
10.06810584168388
 30
0.0
 40
0.953125000000001
100
AcDbArc
 50
259.6111421845315
 51
262.9402352794805
  0
ARC
  5
177
330
1F
100
AcDbEntity
  8
0
  6
Continuous
 62
     7
370
    30
100
AcDbCircle
 10
4.221259276389159
 20
10.06810584168388
 30
0.0
 40
0.9531250000000021
100
AcDbArc
 50
277.0597647205215
 51
280.3888578154705
  0
ARC
  5
178
330
1F
100
AcDbEntity
  8
0
  6
Continuous
 62
     7
370
    30
100
AcDbCircle
 10
4.221259276389159
 20
10.06810584168388
 30
0.0
 40
0.9531250000000014
100
AcDbArc
 50
301.5198585798846
 51
312.4637249517098
  0
ARC
  5
179
330
1F
100
AcDbEntity
  8
0
  6
Continuous
 62
     7
370
    30
100
AcDbCircle
 10
4.096259276389159
 20
10.06810584168388
 30
0.0
 40
0.7031250000000018
100
AcDbArc
 50
257.8985079681778
 51
270.000000000001
  0
ARC
  5
17A
330
1F
100
AcDbEntity
  8
0
  6
Continuous
 62
     7
370
    30
100
AcDbCircle
 10
4.096259276389159
 20
10.06810584168388
 30
0.0
 40
0.7031250000000013
100
AcDbArc
 50
218.4785951332991
 51
233.1301023541572
  0
ARC
  5
17B
330
1F
100
AcDbEntity
  8
0
  6
Continuous
 62
     7
370
    30
100
AcDbCircle
 10
4.096259276389159
 20
10.06810584168388
 30
0.0
 40
0.7031250000000006
100
AcDbArc
 50
191.0884093348208
 51
201.7218605026528
  0
ARC
  5
17C
330
1F
100
AcDbEntity
  8
0
  6
Continuous
 62
     7
370
    30
100
AcDbCircle
 10
4.096259276389159
 20
10.06810584168388
 30
0.0
 40
0.7031250000000001
100
AcDbArc
 50
174.9003110857829
 51
185.0996889142184
  0
ARC
  5
17D
330
1F
100
AcDbEntity
  8
0
  6
Continuous
 62
     7
370
    30
100
AcDbCircle
 10
4.096259276389159
 20
10.06810584168388
 30
0.0
 40
0.7031250000000001
100
AcDbArc
 50
159.9168392524594
 51
170.4675656649986
  0
ARC
  5
17E
330
1F
100
AcDbEntity
  8
0
  6
Continuous
 62
     7
370
    30
100
AcDbCircle
 10
4.096259276389159
 20
10.06810584168388
 30
0.0
 40
0.703125
100
AcDbArc
 50
126.8698976458443
 51
141.5214048667023
  0
ARC
  5
17F
330
1F
100
AcDbEntity
  8
0
  6
Continuous
 62
     7
370
    30
100
AcDbCircle
 10
4.096259276389159
 20
10.06810584168388
 30
0.0
 40
0.703125
100
AcDbArc
 50
90.00000000000019
 51
102.1014920318237
  0
LINE
  5
180
330
1F
100
AcDbEntity
  8
0
  6
Continuous
 62
     7
370
    30
100
AcDbLine
 10
4.096259277899806
 20
10.7712308457905
 30
0.0
 11
4.096259277899806
 21
10.76016680693656
 31
0.0
  0
LINE
  5
181
330
1F
100
AcDbEntity
  8
0
  6
Continuous
 62
     7
370
    30
100
AcDbLine
 10
4.09625927789981
 20
9.364980837577268
 30
0.0
 11
4.09625927789981
 21
9.376044876431214
 31
0.0
  0
LINE
  5
182
330
1F
100
AcDbEntity
  8
0
  6
Continuous
 62
     7
370
    30
100
AcDbLine
 10
4.864736149556079
 20
9.36498083757727
 30
0.0
 11
4.328356908354844
 21
9.364980837577268
 31
0.0
  0
LINE
  5
183
330
1F
100
AcDbEntity
  8
0
  6
Continuous
 62
     7
370
    30
100
AcDbLine
 10
4.114161644423478
 20
9.364980837577268
 30
0.0
 11
4.09625927789981
 21
9.364980837577268
 31
0.0
  0
LINE
  5
184
330
1F
100
AcDbEntity
  8
0
  6
Continuous
 62
     7
370
    30
100
AcDbLine
 10
4.096259277899806
 20
10.7712308457905
 30
0.0
 11
4.114161644423473
 21
10.7712308457905
 31
0.0
  0
LINE
  5
185
330
1F
100
AcDbEntity
  8
0
  6
Continuous
 62
     7
370
    30
100
AcDbLine
 10
4.32835690835484
 20
10.7712308457905
 30
0.0
 11
4.864736149556074
 21
10.77123084579051
 31
0.0
  0
LINE
  5
186
330
1F
100
AcDbEntity
  8
0
  6
Continuous
 62
     7
370
    30
100
AcDbLine
 10
4.09625927789981
 20
9.626044891743037
 30
0.0
 11
4.09625927789981
 21
9.510166803709932
 31
0.0
  0
LINE
  5
187
330
1F
100
AcDbEntity
  8
0
  6
Continuous
 62
     7
370
    30
100
AcDbLine
 10
4.096259277899807
 20
10.51016679162473
 30
0.0
 11
4.096259277899806
 21
10.62604487965784
 31
0.0
  0
LINE
  5
18D
330
1F
100
AcDbEntity
  8
0
  6
Continuous
 62
     7
370
    30
100
AcDbLine
 10
4.8150092806718
 20
6.530113894554855
 30
0.0
 11
4.8150092806718
 21
6.373863852902003
 31
0.0
  0
LINE
  5
18E
330
1F
100
AcDbEntity
  8
0
  6
Continuous
 62
     7
370
    30
100
AcDbLine
 10
5.298652023589563
 20
6.303488865879862
 30
0.0
 11
5.278619128344612
 21
6.303488865879862
 31
0.0
  0
LINE
  5
18F
330
1F
100
AcDbEntity
  8
0
  6
Continuous
 62
     7
370
    30
100
AcDbLine
 10
5.278619128344613
 20
5.975488861630568
 30
0.0
 11
5.298652023589564
 21
5.975488861630568
 31
0.0
  0
LINE
  5
190
330
1F
100
AcDbEntity
  8
0
  6
Continuous
 62
     7
370
    30
100
AcDbLine
 10
5.814746041627428
 20
6.200738906189499
 30
0.0
 11
5.712901151481623
 21
6.200738906189498
 31
0.0
  0
LINE
  5
191
330
1F
100
AcDbEntity
  8
0
  6
Continuous
 62
     7
370
    30
100
AcDbLine
 10
5.493234129093811
 20
6.200738906189498
 30
0.0
 11
5.418589138065783
 21
6.200738906189498
 31
0.0
  0
LINE
  5
192
330
1F
100
AcDbEntity
  8
0
  6
Continuous
 62
     7
370
    30
100
AcDbLine
 10
5.418589138065783
 20
6.078238894653418
 30
0.0
 11
5.493234129093811
 21
6.078238894653418
 31
0.0
  0
LINE
  5
193
330
1F
100
AcDbEntity
  8
0
  6
Continuous
 62
     7
370
    30
100
AcDbLine
 10
5.708056954108871
 20
6.078238894653418
 30
0.0
 11
5.814746041627428
 21
6.078238894653419
 31
0.0
  0
LINE
  5
194
330
1F
100
AcDbEntity
  8
0
  6
Continuous
 62
     7
370
    30
100
AcDbLine
 10
3.163899424433754
 20
6.303488865879855
 30
0.0
 11
3.143866529188803
 21
6.303488865879855
 31
0.0
  0
LINE
  5
195
330
1F
100
AcDbEntity
  8
0
  6
Continuous
 62
     7
370
    30
100
AcDbLine
 10
3.143866529188804
 20
5.97548886163056
 30
0.0
 11
3.163899424433755
 21
5.97548886163056
 31
0.0
  0
LINE
  5
196
330
1F
100
AcDbEntity
  8
0
  6
Continuous
 62
     7
370
    30
100
AcDbLine
 10
2.62777251115094
 20
6.078238894653407
 30
0.0
 11
2.734459252029939
 21
6.078238894653408
 31
0.0
  0
LINE
  5
197
330
1F
100
AcDbEntity
  8
0
  6
Continuous
 62
     7
370
    30
100
AcDbLine
 10
2.949284423684558
 20
6.078238894653409
 30
0.0
 11
3.023929414712585
 21
6.078238894653409
 31
0.0
  0
LINE
  5
198
330
1F
100
AcDbEntity
  8
0
  6
Continuous
 62
     7
370
    30
100
AcDbLine
 10
3.023929414712585
 20
6.200738906189489
 30
0.0
 11
2.949284423684557
 21
6.200738906189489
 31
0.0
  0
LINE
  5
199
330
1F
100
AcDbEntity
  8
0
  6
Continuous
 62
     7
370
    30
100
AcDbLine
 10
2.729617401296745
 20
6.200738906189489
 30
0.0
 11
2.62777251115094
 21
6.200738906189487
 31
0.0
  0
ARC
  5
19A
330
1F
100
AcDbEntity
  8
0
  6
Continuous
 62
     7
370
    30
100
AcDbCircle
 10
5.193134276389192
 20
5.840602381947755
 30
0.0
 40
0.0125000000000011
100
AcDbArc
 50
270.0000000000008
 51
90.0
  0
ARC
  5
19B
330
1F
100
AcDbEntity
  8
0
  6
Continuous
 62
     7
370
    30
100
AcDbCircle
 10
4.811884276389192
 20
5.840602381947753
 30
0.0
 40
0.0125000000000002
100
AcDbArc
 50
90.00000000000406
 51
269.9999999999968
  0
LINE
  5
19C
330
1F
100
AcDbEntity
  8
0
  6
Continuous
 62
     7
370
    30
100
AcDbLine
 10
5.143186932868892
 20
6.017616944963351
 30
0.0
 11
5.137389046513237
 21
6.023414867985249
 31
0.0
  0
LINE
  5
19D
330
1F
100
AcDbEntity
  8
0
  6
Continuous
 62
     7
370
    30
100
AcDbLine
 10
4.867629482798736
 20
6.023414867985248
 30
0.0
 11
4.861831596443081
 21
6.017616944963349
 31
0.0
  0
LINE
  5
19E
330
1F
100
AcDbEntity
  8
0
  6
Continuous
 62
     7
370
    30
100
AcDbLine
 10
4.908759254330773
 20
5.828102370918547
 30
0.0
 11
4.908759254330774
 21
5.609352380437104
 31
0.0
  0
ARC
  5
19F
330
1F
100
AcDbEntity
  8
0
  6
Continuous
 62
     7
370
    30
100
AcDbCircle
 10
2.849384276389185
 20
5.840602381947751
 30
0.0
 40
0.0125000000000002
100
AcDbArc
 50
270.0000000000008
 51
90.0
  0
ARC
  5
1A0
330
1F
100
AcDbEntity
  8
0
  6
Continuous
 62
     7
370
    30
100
AcDbCircle
 10
2.468134276389184
 20
5.84060238194775
 30
0.0
 40
0.0125000000000002
100
AcDbArc
 50
90.0
 51
270.0000000000008
  0
LINE
  5
1A1
330
1F
100
AcDbEntity
  8
0
  6
Continuous
 62
     7
370
    30
100
AcDbLine
 10
2.799436968068485
 20
6.017616944963347
 30
0.0
 11
2.793639008380344
 21
6.023414867985246
 31
0.0
  0
LINE
  5
1A2
330
1F
100
AcDbEntity
  8
0
  6
Continuous
 62
     7
370
    30
100
AcDbLine
 10
2.523879444665843
 20
6.023414867985245
 30
0.0
 11
2.518081631642674
 21
6.017616944963346
 31
0.0
  0
LINE
  5
1A3
330
1F
100
AcDbEntity
  8
0
  6
Continuous
 62
     7
370
    30
100
AcDbLine
 10
2.565009289530368
 20
5.4781023819087
 30
0.0
 11
2.59000921406244
 21
5.453102382325412
 31
0.0
  0
LINE
  5
1A4
330
1F
100
AcDbEntity
  8
0
  6
Continuous
 62
     7
370
    30
100
AcDbLine
 10
2.727509238983752
 20
5.453102382325414
 30
0.0
 11
2.752509310180796
 21
5.478102381908701
 31
0.0
  0
LINE
  5
1A5
330
1F
100
AcDbEntity
  8
0
  6
Continuous
 62
     7
370
    30
100
AcDbLine
 10
2.565009289530367
 20
5.828102370918544
 30
0.0
 11
2.565009289530368
 21
5.4781023819087
 31
0.0
  0
LINE
  5
1A6
330
1F
100
AcDbEntity
  8
0
  6
Continuous
 62
     7
370
    30
100
AcDbLine
 10
2.752509310180796
 20
5.478102381908701
 30
0.0
 11
2.752509310180795
 21
5.828102370918545
 31
0.0
  0
LINE
  5
1A7
330
1F
100
AcDbEntity
  8
0
  6
Continuous
 62
     7
370
    30
100
AcDbLine
 10
2.596259341860426
 20
6.467613863227215
 30
0.0
 11
2.596259341860426
 21
6.405113905232062
 31
0.0
  0
LINE
  5
1A8
330
1F
100
AcDbEntity
  8
0
  6
Continuous
 62
     7
370
    30
100
AcDbLine
 10
2.729617401296745
 20
6.123863874256418
 30
0.0
 11
2.729617401296744
 21
6.373863852901998
 31
0.0
  0
LWPOLYLINE
  5
1A9
330
1F
100
AcDbEntity
  8
0
  6
Continuous
 62
     7
370
    30
100
AcDbPolyline
 90
       15
 70
   128
 43
0.0
 10
2.769436941298021
 20
6.030113863931204
 10
2.764728555689694
 20
6.030714823655533
 10
2.760124448876728
 20
6.032494603095369
 10
2.755707633233493
 20
6.035418662649717
 10
2.751518881622309
 20
6.039473582473603
 10
2.747585913722956
 20
6.044605793185867
 10
2.743973848783172
 20
6.050719265895843
 10
2.740707473183289
 20
6.05778133098093
 10
2.737808493339218
 20
6.06570501611251
 10
2.735322082062453
 20
6.074342006337262
 10
2.733272292408464
 20
6.083599792723857
 10
2.731659417707197
 20
6.093400349506989
 10
2.730507657679094
 20
6.103558035497867
 10
2.729841065379625
 20
6.113649538919958
 10
2.729617401296745
 20
6.123863874256418
  0
LWPOLYLINE
  5
1AA
330
1F
100
AcDbEntity
  8
0
  6
Continuous
 62
     7
370
    30
100
AcDbPolyline
 90
       15
 70
   128
 43
0.0
 10
5.712901151481623
 20
6.123863874256429
 10
5.712664434216201
 20
6.113400795126812
 10
5.711961175673637
 20
6.103036934851009
 10
5.71080178906697
 20
6.092967467841018
 10
5.709187301051007
 20
6.083294399585128
 10
5.707131644798123
 20
6.074100412461518
 10
5.704665473287547
 20
6.065555821169366
 10
5.701786586544693
 20
6.057721601670938
 10
5.698525784213759
 20
6.050692682869608
 10
5.694934252370108
 20
6.04459871660096
 10
5.691010377699043
 20
6.039485828998807
 10
5.686804906281007
 20
6.035422145942821
 10
5.682389850617441
 20
6.032484299881069
 10
5.67779527702768
 20
6.030710460372614
 10
5.673081611480347
 20
6.030113863931214
  0
LINE
  5
1AB
330
1F
100
AcDbEntity
  8
0
  6
Continuous
 62
     7
370
    30
100
AcDbLine
 10
5.712901151481623
 20
6.123863874256429
 30
0.0
 11
5.712901151481622
 21
6.373863852902009
 31
0.0
  0
LINE
  5
1AC
330
1F
100
AcDbEntity
  8
0
  6
Continuous
 62
     7
370
    30
100
AcDbLine
 10
5.846259210917939
 20
6.405113905232074
 30
0.0
 11
5.846259210917938
 21
6.467613863227225
 31
0.0
  0
LINE
  5
1AD
330
1F
100
AcDbEntity
  8
0
  6
Continuous
 62
     7
370
    30
100
AcDbLine
 10
4.784378851183802
 20
6.373863852902003
 30
0.0
 11
4.784378851183801
 21
6.530113894554855
 31
0.0
  0
LINE
  5
1AE
330
1F
100
AcDbEntity
  8
0
  6
Continuous
 62
     7
370
    30
100
AcDbLine
 10
3.053441707117397
 20
6.373863852901998
 30
0.0
 11
4.087568699960796
 21
6.373863852902
 31
0.0
  0
LINE
  5
1AF
330
1F
100
AcDbEntity
  8
0
  6
Continuous
 62
     7
370
    30
100
AcDbLine
 10
4.354949852817569
 20
6.373863852902
 30
0.0
 11
4.784378851183802
 21
6.373863852902003
 31
0.0
  0
LINE
  5
1B0
330
1F
100
AcDbEntity
  8
0
  6
Continuous
 62
     7
370
    30
100
AcDbLine
 10
3.053441707117397
 20
6.257316239269976
 30
0.0
 11
3.053441707117397
 21
6.373863852901998
 31
0.0
  0
ARC
  5
1B1
330
1F
100
AcDbEntity
  8
0
  6
Continuous
 62
     7
370
    30
100
AcDbCircle
 10
2.994114422275479
 20
6.075483951109188
 30
0.0
 40
0.0456066194681254
100
AcDbArc
 50
275.8379018208749
 51
329.473895280079
  0
LINE
  5
1B2
330
1F
100
AcDbEntity
  8
0
  6
Continuous
 62
     7
370
    30
100
AcDbLine
 10
2.998753272216198
 20
6.030113863931204
 30
0.0
 11
2.90500333522347
 21
6.030113863931204
 31
0.0
  0
LWPOLYLINE
  5
1B3
330
1F
100
AcDbEntity
  8
0
  6
Continuous
 62
     7
370
    30
100
AcDbPolyline
 90
       15
 70
   128
 43
0.0
 10
2.865941759799456
 20
6.123863874256418
 10
2.866171437146204
 20
6.113410988342382
 10
2.866854455922579
 20
6.103057247949674
 10
2.867980696245489
 20
6.092997900822777
 10
2.869550011449959
 20
6.083334915783738
 10
2.87154949501842
 20
6.074150315218362
 10
2.873950253951315
 20
6.065613570502232
 10
2.876758594842454
 20
6.057778947675129
 10
2.879943718047639
 20
6.050748268894131
 10
2.883456784131067
 20
6.044650745999902
 10
2.887305859666218
 20
6.039526601861119
 10
2.891437998598063
 20
6.035451882265961
 10
2.895783828394666
 20
6.032503366327468
 10
2.900330295873486
 20
6.030715300316693
 10
2.90500333522347
 20
6.030113863931204
  0
LINE
  5
1B4
330
1F
100
AcDbEntity
  8
0
  6
Continuous
 62
     7
370
    30
100
AcDbLine
 10
2.865941759799456
 20
6.123863874256418
 30
0.0
 11
2.865941759799455
 21
6.248863863579209
 31
0.0
  0
LINE
  5
1B5
330
1F
100
AcDbEntity
  8
0
  6
Continuous
 62
     7
370
    30
100
AcDbLine
 10
2.752509310180792
 20
6.373863852902
 30
0.0
 11
2.793407424388954
 21
6.373863852901999
 31
0.0
  0
LINE
  5
1B6
330
1F
100
AcDbEntity
  8
0
  6
Continuous
 62
     7
370
    30
100
AcDbLine
 10
2.752509310180792
 20
6.530113894554853
 30
0.0
 11
2.752509310180792
 21
6.373863852902
 31
0.0
  0
LINE
  5
1B7
330
1F
100
AcDbEntity
  8
0
  6
Continuous
 62
     7
370
    30
100
AcDbLine
 10
5.576576792978912
 20
6.123863874256428
 30
0.0
 11
5.576576792978911
 21
6.248863863579218
 31
0.0
  0
LWPOLYLINE
  5
1B8
330
1F
100
AcDbEntity
  8
0
  6
Continuous
 62
     7
370
    30
100
AcDbPolyline
 90
       15
 70
   128
 43
0.0
 10
5.537515217554898
 20
6.030113863931214
 10
5.542166403823998
 20
6.030715410315433
 10
5.546707151368894
 20
6.032496803069965
 10
5.551055914464945
 20
6.035423099265141
 10
5.555173093569607
 20
6.039480732391017
 10
5.55903272898277
 20
6.044616023067701
 10
5.562572194761226
 20
6.050733089069499
 10
5.565769051164201
 20
6.057802010742046
 10
5.568602471765617
 20
6.065733982444565
 10
5.571029483728569
 20
6.07438072588998
 10
5.573026767322445
 20
6.083645295531548
 10
5.574596669186805
 20
6.093453625558216
 10
5.575716016256012
 20
6.103619708118762
 10
5.576360608809624
 20
6.113680778559086
 10
5.576576792978912
 20
6.123863874256428
  0
LINE
  5
1B9
330
1F
100
AcDbEntity
  8
0
  6
Continuous
 62
     7
370
    30
100
AcDbLine
 10
5.537515217554898
 20
6.030113863931214
 30
0.0
 11
5.44376528056217
 21
6.030113863931213
 31
0.0
  0
ARC
  5
1BA
330
1F
100
AcDbEntity
  8
0
  6
Continuous
 62
     7
370
    30
100
AcDbCircle
 10
5.447594318205458
 20
6.074214424824702
 30
0.0
 40
0.044266477162679
100
AcDbArc
 50
209.6401028015771
 51
265.037730135582
  0
LINE
  5
1BB
330
1F
100
AcDbEntity
  8
0
  6
Continuous
 62
     7
370
    30
100
AcDbLine
 10
5.389076845660969
 20
6.257316239269985
 30
0.0
 11
5.389076845660969
 21
6.373863852902007
 31
0.0
  0
LINE
  5
1BC
330
1F
100
AcDbEntity
  8
0
  6
Continuous
 62
     7
370
    30
100
AcDbLine
 10
5.114472717911286
 20
6.373863852902005
 30
0.0
 11
5.389076845660969
 21
6.373863852902007
 31
0.0
  0
LINE
  5
1BD
330
1F
100
AcDbEntity
  8
0
  6
Continuous
 62
     7
370
    30
100
AcDbLine
 10
5.114472717911285
 20
6.530113894554857
 30
0.0
 11
5.114472717911286
 21
6.373863852902005
 31
0.0
  0
LINE
  5
1BE
330
1F
100
AcDbEntity
  8
0
  6
Continuous
 62
     7
370
    30
100
AcDbLine
 10
5.462237073841103
 20
6.530113894554859
 30
0.0
 11
5.462401778605086
 21
6.530113894554859
 31
0.0
  0
LINE
  5
1BF
330
1F
100
AcDbEntity
  8
0
  6
Continuous
 62
     7
370
    30
100
AcDbLine
 10
5.690009242597573
 20
6.373863852902012
 30
0.0
 11
5.690009242597573
 21
6.530113894554864
 31
0.0
  0
LINE
  5
1C0
330
1F
100
AcDbEntity
  8
0
  6
Continuous
 62
     7
370
    30
100
AcDbLine
 10
5.649111128389412
 20
6.373863852902009
 30
0.0
 11
5.690009242597573
 21
6.373863852902012
 31
0.0
  0
ARC
  5
1C1
330
1F
100
AcDbEntity
  8
0
  6
Continuous
 62
     7
370
    30
100
AcDbCircle
 10
2.663715391509402
 20
6.561363878935842
 30
0.0
 40
0.03125
100
AcDbArc
 50
182.9999999999999
 51
270.0000000000008
  0
LINE
  5
1C2
330
1F
100
AcDbEntity
  8
0
  6
Continuous
 62
     7
370
    30
100
AcDbLine
 10
2.752509310180792
 20
6.530113894554853
 30
0.0
 11
2.663715402602256
 21
6.530113894554853
 31
0.0
  0
LINE
  5
1C3
330
1F
100
AcDbEntity
  8
0
  6
Continuous
 62
     7
370
    30
100
AcDbLine
 10
2.752509310180792
 20
6.373863852902
 30
0.0
 11
2.627509247525516
 21
6.373863852902
 31
0.0
  0
ARC
  5
1C4
330
1F
100
AcDbEntity
  8
0
  6
Continuous
 62
     7
370
    30
100
AcDbCircle
 10
2.627509276389183
 20
6.405113878935841
 30
0.0
 40
0.03125
100
AcDbArc
 50
180.0000000000024
 51
270.0000000000008
  0
ARC
  5
1C5
330
1F
100
AcDbEntity
  8
0
  6
Continuous
 62
     7
370
    30
100
AcDbCircle
 10
2.533759276389182
 20
6.467613878935842
 30
0.0
 40
0.0625000000000005
100
AcDbArc
 50
0.0
 51
90.0
  0
LINE
  5
1C6
330
1F
100
AcDbEntity
  8
0
  6
Continuous
 62
     7
370
    30
100
AcDbLine
 10
2.533759237200302
 20
6.530113894554851
 30
0.0
 11
1.97125932191399
 21
6.53011389455485
 31
0.0
  0
LINE
  5
1C7
330
1F
100
AcDbEntity
  8
0
  6
Continuous
 62
     7
370
    30
100
AcDbLine
 10
1.97125932191399
 20
6.53011389455485
 30
0.0
 11
1.971259321913989
 21
6.65511388387764
 31
0.0
  0
LINE
  5
1C8
330
1F
100
AcDbEntity
  8
0
  6
Continuous
 62
     7
370
    30
100
AcDbLine
 10
2.59785417677009
 20
6.655113883877643
 30
0.0
 11
1.971259321913989
 21
6.65511388387764
 31
0.0
  0
ARC
  5
1C9
330
1F
100
AcDbEntity
  8
0
  6
Continuous
 62
     7
370
    30
100
AcDbCircle
 10
2.597854133679342
 20
6.623863878935842
 30
0.0
 40
0.0312500000000004
100
AcDbArc
 50
3.000000000000673
 51
90.0
  0
LINE
  5
1CA
330
1F
100
AcDbEntity
  8
0
  6
Continuous
 62
     7
370
    30
100
AcDbLine
 10
2.629061256263244
 20
6.625499365987081
 30
0.0
 11
2.632508176444129
 21
6.559728412445415
 31
0.0
  0
ARC
  5
1CB
330
1F
100
AcDbEntity
  8
0
  6
Continuous
 62
     7
370
    30
100
AcDbCircle
 10
5.844664419099022
 20
6.623863878935853
 30
0.0
 40
0.0312500000000009
100
AcDbArc
 50
90.0
 51
176.9999999999993
  0
LINE
  5
1CC
330
1F
100
AcDbEntity
  8
0
  6
Continuous
 62
     7
370
    30
100
AcDbLine
 10
6.471259230864374
 20
6.655113883877656
 30
0.0
 11
5.844664376008274
 21
6.655113883877653
 31
0.0
  0
LINE
  5
1CD
330
1F
100
AcDbEntity
  8
0
  6
Continuous
 62
     7
370
    30
100
AcDbLine
 10
6.471259230864374
 20
6.655113883877656
 30
0.0
 11
6.471259230864374
 21
6.530113894554865
 31
0.0
  0
LINE
  5
1CE
330
1F
100
AcDbEntity
  8
0
  6
Continuous
 62
     7
370
    30
100
AcDbLine
 10
6.471259230864374
 20
6.530113894554865
 30
0.0
 11
5.908759315578063
 21
6.530113894554864
 31
0.0
  0
ARC
  5
1CF
330
1F
100
AcDbEntity
  8
0
  6
Continuous
 62
     7
370
    30
100
AcDbCircle
 10
5.908759276389183
 20
6.467613878935854
 30
0.0
 40
0.0625000000000009
100
AcDbArc
 50
90.0
 51
179.9999999999998
  0
ARC
  5
1D0
330
1F
100
AcDbEntity
  8
0
  6
Continuous
 62
     7
370
    30
100
AcDbCircle
 10
5.815009276389183
 20
6.405113878935853
 30
0.0
 40
0.0312500000000009
100
AcDbArc
 50
270.0000000000008
 51
0.0
  0
LINE
  5
1D1
330
1F
100
AcDbEntity
  8
0
  6
Continuous
 62
     7
370
    30
100
AcDbLine
 10
5.81500930525285
 20
6.373863852902012
 30
0.0
 11
5.690009242597573
 21
6.373863852902012
 31
0.0
  0
LINE
  5
1D2
330
1F
100
AcDbEntity
  8
0
  6
Continuous
 62
     7
370
    30
100
AcDbLine
 10
5.778803150176108
 20
6.530113894554864
 30
0.0
 11
5.690009242597573
 21
6.530113894554864
 31
0.0
  0
ARC
  5
1D3
330
1F
100
AcDbEntity
  8
0
  6
Continuous
 62
     7
370
    30
100
AcDbCircle
 10
5.778803161268963
 20
6.561363878935853
 30
0.0
 40
0.03125
100
AcDbArc
 50
270.0000000000008
 51
357.0000000000034
  0
LINE
  5
1D4
330
1F
100
AcDbEntity
  8
0
  6
Continuous
 62
     7
370
    30
100
AcDbLine
 10
5.810010376334235
 20
6.559728412445426
 30
0.0
 11
5.813457296515119
 21
6.625499365987091
 31
0.0
  0
LINE
  5
1D5
330
1F
100
AcDbEntity
  8
0
  6
Continuous
 62
     7
370
    30
100
AcDbLine
 10
2.59785417677009
 20
6.655113883877643
 30
0.0
 11
2.643134347023032
 21
6.65511388387764
 31
0.0
  0
LINE
  5
1D6
330
1F
100
AcDbEntity
  8
0
  6
Continuous
 62
     7
370
    30
100
AcDbLine
 10
5.799384205755331
 20
6.655113883877652
 30
0.0
 11
5.844664376008274
 21
6.655113883877653
 31
0.0
  0
LINE
  5
1D7
330
1F
100
AcDbEntity
  8
0
  6
Continuous
 62
     7
370
    30
100
AcDbLine
 10
5.673081611480347
 20
6.030113863931214
 30
0.0
 11
5.537515217554898
 21
6.030113863931214
 31
0.0
  0
LINE
  5
1D8
330
1F
100
AcDbEntity
  8
0
  6
Continuous
 62
     7
370
    30
100
AcDbLine
 10
5.576576792978912
 20
6.123863874256428
 30
0.0
 11
5.712901151481623
 21
6.123863874256429
 31
0.0
  0
LINE
  5
1D9
330
1F
100
AcDbEntity
  8
0
  6
Continuous
 62
     7
370
    30
100
AcDbLine
 10
2.90500333522347
 20
6.030113863931204
 30
0.0
 11
2.769436941298021
 21
6.030113863931204
 31
0.0
  0
LINE
  5
1DA
330
1F
100
AcDbEntity
  8
0
  6
Continuous
 62
     7
370
    30
100
AcDbLine
 10
2.729617401296745
 20
6.123863874256418
 30
0.0
 11
2.865941759799456
 21
6.123863874256418
 31
0.0
  0
LINE
  5
1DB
330
1F
100
AcDbEntity
  8
0
  6
Continuous
 62
     7
370
    30
100
AcDbLine
 10
5.03097884243966
 20
6.373863852902005
 30
0.0
 11
5.030978842439659
 21
6.530113894554857
 31
0.0
  0
LINE
  5
1DC
330
1F
100
AcDbEntity
  8
0
  6
Continuous
 62
     7
370
    30
100
AcDbLine
 10
5.03097884243966
 20
6.373863852902005
 30
0.0
 11
4.8150092806718
 21
6.373863852902003
 31
0.0
  0
LINE
  5
1DD
330
1F
100
AcDbEntity
  8
0
  6
Continuous
 62
     7
370
    30
100
AcDbLine
 10
5.114472717911286
 20
6.373863852902005
 30
0.0
 11
5.03097884243966
 21
6.373863852902005
 31
0.0
  0
LINE
  5
1DE
330
1F
100
AcDbEntity
  8
0
  6
Continuous
 62
     7
370
    30
100
AcDbLine
 10
4.8150092806718
 20
6.373863852902003
 30
0.0
 11
4.784378851183802
 21
6.373863852902003
 31
0.0
  0
ELLIPSE
  5
1DF
330
1F
100
AcDbEntity
  8
0
  6
Continuous
 62
     7
370
    30
100
AcDbEllipse
 10
4.221259276389186
 20
5.686085485690721
 30
0.0
 11
-0.0000000000000195
 21
6.872802630710314
 31
0.0
210
0.0
220
0.0
230
1.0
 40
0.1943803091377191
 41
4.794365612865165
 42
4.82177327313839
  0
LINE
  5
1E0
330
1F
100
AcDbEntity
  8
0
  6
Continuous
 62
     7
370
    30
100
AcDbLine
 10
5.557196776858511
 20
6.436363884229648
 30
0.0
 11
5.549212482427095
 21
6.436363884229647
 31
0.0
  0
LINE
  5
1E1
330
1F
100
AcDbEntity
  8
0
  6
Continuous
 62
     7
370
    30
100
AcDbLine
 10
5.557196776858511
 20
6.24886386357922
 30
0.0
 11
5.557196776858511
 21
6.436363884229648
 31
0.0
  0
LINE
  5
1E2
330
1F
100
AcDbEntity
  8
0
  6
Continuous
 62
     7
370
    30
100
AcDbLine
 10
5.557196776858511
 20
6.24886386357922
 30
0.0
 11
5.552710442018367
 21
6.248863863579219
 31
0.0
  0
LINE
  5
1E3
330
1F
100
AcDbEntity
  8
0
  6
Continuous
 62
     7
370
    30
100
AcDbLine
 10
5.557196776858511
 20
6.24886386357922
 30
0.0
 11
5.649111128389412
 21
6.24886386357922
 31
0.0
  0
ARC
  5
1E4
330
1F
100
AcDbEntity
  8
0
  6
Continuous
 62
     7
370
    30
100
AcDbCircle
 10
5.463446776389183
 20
6.436363878935853
 30
0.0
 40
0.09375
100
AcDbArc
 50
0.0
 51
70.52877936550979
  0
LINE
  5
1E5
330
1F
100
AcDbEntity
  8
0
  6
Continuous
 62
     7
370
    30
100
AcDbLine
 10
5.494696818863358
 20
6.524752263159553
 30
0.0
 11
5.494696818863358
 21
6.655113883877652
 31
0.0
  0
LINE
  5
1E6
330
1F
100
AcDbEntity
  8
0
  6
Continuous
 62
     7
370
    30
100
AcDbLine
 10
5.799384205755331
 20
6.655113883877653
 30
0.0
 11
5.494696818863358
 21
6.655113883877652
 31
0.0
  0
LINE
  5
1E7
330
1F
100
AcDbEntity
  8
0
  6
Continuous
 62
     7
370
    30
100
AcDbLine
 10
5.799384205755331
 20
6.655113883877653
 30
0.0
 11
5.799384205755331
 21
6.530113894554864
 31
0.0
  0
LINE
  5
1E8
330
1F
100
AcDbEntity
  8
0
  6
Continuous
 62
     7
370
    30
100
AcDbLine
 10
5.799384205755331
 20
6.530113894554864
 30
0.0
 11
5.649111128389411
 21
6.530113894554863
 31
0.0
  0
LINE
  5
1E9
330
1F
100
AcDbEntity
  8
0
  6
Continuous
 62
     7
370
    30
100
AcDbLine
 10
5.649111128389411
 20
6.530113894554863
 30
0.0
 11
5.649111128389412
 21
6.24886386357922
 31
0.0
  0
ELLIPSE
  5
1EA
330
1F
100
AcDbEntity
  8
0
  6
Continuous
 62
     7
370
    30
100
AcDbEllipse
 10
4.221259276389186
 20
5.686085485690721
 30
0.0
 11
-0.0000000000000098
 21
6.872802630710314
 31
0.0
210
0.0
220
0.0
230
1.0
 40
0.194380309137719
 41
1.4614120340412
 42
1.488819694314424
  0
LINE
  5
1EB
330
1F
100
AcDbEntity
  8
0
  6
Continuous
 62
     7
370
    30
100
AcDbLine
 10
2.889808110759999
 20
6.24886386357921
 30
0.0
 11
2.885321775919855
 21
6.24886386357921
 31
0.0
  0
LINE
  5
1EC
330
1F
100
AcDbEntity
  8
0
  6
Continuous
 62
     7
370
    30
100
AcDbLine
 10
2.885321775919855
 20
6.436363884229638
 30
0.0
 11
2.885321775919855
 21
6.24886386357921
 31
0.0
  0
LINE
  5
1ED
330
1F
100
AcDbEntity
  8
0
  6
Continuous
 62
     7
370
    30
100
AcDbLine
 10
2.893306070351271
 20
6.436363884229638
 30
0.0
 11
2.885321775919855
 21
6.436363884229638
 31
0.0
  0
LINE
  5
1EE
330
1F
100
AcDbEntity
  8
0
  6
Continuous
 62
     7
370
    30
100
AcDbLine
 10
2.793407424388953
 20
6.530113894554853
 30
0.0
 11
2.643134347023033
 21
6.530113894554853
 31
0.0
  0
LINE
  5
1EF
330
1F
100
AcDbEntity
  8
0
  6
Continuous
 62
     7
370
    30
100
AcDbLine
 10
2.643134347023033
 20
6.530113894554853
 30
0.0
 11
2.643134347023032
 21
6.655113883877643
 31
0.0
  0
LINE
  5
1F0
330
1F
100
AcDbEntity
  8
0
  6
Continuous
 62
     7
370
    30
100
AcDbLine
 10
2.947821733915006
 20
6.655113883877643
 30
0.0
 11
2.643134347023032
 21
6.655113883877643
 31
0.0
  0
LINE
  5
1F1
330
1F
100
AcDbEntity
  8
0
  6
Continuous
 62
     7
370
    30
100
AcDbLine
 10
2.947821733915006
 20
6.655113883877643
 30
0.0
 11
2.947821733915006
 21
6.524752263159543
 31
0.0
  0
ARC
  5
1F2
330
1F
100
AcDbEntity
  8
0
  6
Continuous
 62
     7
370
    30
100
AcDbCircle
 10
2.979071776389183
 20
6.436363878935844
 30
0.0
 40
0.0937500000000001
100
AcDbArc
 50
109.4712206344912
 51
180.0
  0
LINE
  5
1F3
330
1F
100
AcDbEntity
  8
0
  6
Continuous
 62
     7
370
    30
100
AcDbLine
 10
2.793407424388954
 20
6.24886386357921
 30
0.0
 11
2.885321775919855
 21
6.24886386357921
 31
0.0
  0
LINE
  5
1F4
330
1F
100
AcDbEntity
  8
0
  6
Continuous
 62
     7
370
    30
100
AcDbLine
 10
2.793407424388954
 20
6.24886386357921
 30
0.0
 11
2.793407424388953
 21
6.530113894554853
 31
0.0
  0
ARC
  5
1F5
330
1F
100
AcDbEntity
  8
0
  6
Continuous
 62
     7
370
    30
100
AcDbCircle
 10
5.452677120776638
 20
6.433537223208699
 30
0.0
 40
0.0965767366476616
100
AcDbArc
 50
1.677203893330901
 51
90.06662894895454
  0
ARC
  5
1F6
330
1F
100
AcDbEntity
  8
0
  6
Continuous
 62
     7
370
    30
100
AcDbCircle
 10
5.46201666417495
 20
6.427841755685334
 30
0.0
 40
0.1022723763748983
100
AcDbArc
 50
71.36486829920002
 51
89.87652038744256
  0
ARC
  5
1F7
330
1F
100
AcDbEntity
  8
0
  6
Continuous
 62
     7
370
    30
100
AcDbCircle
 10
2.982990680121798
 20
6.463374329567158
 30
0.0
 40
0.0667714916377136
100
AcDbArc
 50
88.22811279055276
 51
119.554038426238
  0
ARC
  5
1F8
330
1F
100
AcDbEntity
  8
0
  6
Continuous
 62
     7
370
    30
100
AcDbCircle
 10
2.989383014904918
 20
6.433760199277116
 30
0.0
 40
0.0961122180063318
100
AcDbArc
 50
114.1531965200189
 51
178.4476644636789
  0
ARC
  5
1F9
330
1F
100
AcDbEntity
  8
0
  6
Continuous
 62
     7
370
    30
100
AcDbCircle
 10
2.980526814394803
 20
6.427690852951959
 30
0.0
 40
0.1024233354303343
100
AcDbArc
 50
90.13724118302427
 51
108.6213701303367
  0
LINE
  5
1FA
330
1F
100
AcDbEntity
  8
0
  6
Continuous
 62
     7
370
    30
100
AcDbLine
 10
3.010321765242644
 20
6.655113883877643
 30
0.0
 11
3.010321765242645
 21
6.530113894554853
 31
0.0
  0
LINE
  5
1FB
330
1F
100
AcDbEntity
  8
0
  6
Continuous
 62
     7
370
    30
100
AcDbLine
 10
3.010321765242645
 20
6.530113894554853
 30
0.0
 11
2.980281478937262
 21
6.530113894554853
 31
0.0
  0
LINE
  5
1FC
330
1F
100
AcDbEntity
  8
0
  6
Continuous
 62
     7
370
    30
100
AcDbLine
 10
3.010321765242644
 20
6.655113883877643
 30
0.0
 11
2.947821733915006
 21
6.655113883877643
 31
0.0
  0
LINE
  5
1FD
330
1F
100
AcDbEntity
  8
0
  6
Continuous
 62
     7
370
    30
100
AcDbLine
 10
5.462237073841103
 20
6.530113894554862
 30
0.0
 11
5.43219678753572
 21
6.530113894554862
 31
0.0
  0
LINE
  5
1FE
330
1F
100
AcDbEntity
  8
0
  6
Continuous
 62
     7
370
    30
100
AcDbLine
 10
5.43219678753572
 20
6.655113883877652
 30
0.0
 11
5.43219678753572
 21
6.530113894554862
 31
0.0
  0
LINE
  5
1FF
330
1F
100
AcDbEntity
  8
0
  6
Continuous
 62
     7
370
    30
100
AcDbLine
 10
5.494696818863358
 20
6.655113883877652
 30
0.0
 11
5.43219678753572
 21
6.655113883877652
 31
0.0
  0
LINE
  5
200
330
1F
100
AcDbEntity
  8
0
  6
Continuous
 62
     7
370
    30
100
AcDbLine
 10
3.932196768997267
 20
6.655113883877647
 30
0.0
 11
3.932196768997268
 21
6.530113894554857
 31
0.0
  0
LINE
  5
201
330
1F
100
AcDbEntity
  8
0
  6
Continuous
 62
     7
370
    30
100
AcDbLine
 10
3.994696781991784
 20
6.655113883877647
 30
0.0
 11
3.932196768997267
 21
6.655113883877647
 31
0.0
  0
LINE
  5
202
330
1F
100
AcDbEntity
  8
0
  6
Continuous
 62
     7
370
    30
100
AcDbLine
 10
3.994696781991784
 20
6.530113894554857
 30
0.0
 11
3.994696781991784
 21
6.655113883877647
 31
0.0
  0
LINE
  5
203
330
1F
100
AcDbEntity
  8
0
  6
Continuous
 62
     7
370
    30
100
AcDbLine
 10
3.994696781991784
 20
6.530113894554857
 30
0.0
 11
3.932196768997268
 21
6.530113894554857
 31
0.0
  0
LINE
  5
204
330
1F
100
AcDbEntity
  8
0
  6
Continuous
 62
     7
370
    30
100
AcDbLine
 10
4.44782177078658
 20
6.655113883877649
 30
0.0
 11
3.994696781991784
 21
6.655113883877647
 31
0.0
  0
LINE
  5
205
330
1F
100
AcDbEntity
  8
0
  6
Continuous
 62
     7
370
    30
100
AcDbLine
 10
4.44782177078658
 20
6.655113883877649
 30
0.0
 11
4.44782177078658
 21
6.530113894554859
 31
0.0
  0
LINE
  5
206
330
1F
100
AcDbEntity
  8
0
  6
Continuous
 62
     7
370
    30
100
AcDbLine
 10
4.44782177078658
 20
6.530113894554859
 30
0.0
 11
3.994696781991784
 21
6.530113894554857
 31
0.0
  0
LINE
  5
207
330
1F
100
AcDbEntity
  8
0
  6
Continuous
 62
     7
370
    30
100
AcDbLine
 10
4.510321783781097
 20
6.655113883877648
 30
0.0
 11
4.510321783781097
 21
6.530113894554858
 31
0.0
  0
LINE
  5
208
330
1F
100
AcDbEntity
  8
0
  6
Continuous
 62
     7
370
    30
100
AcDbLine
 10
4.510321783781097
 20
6.530113894554858
 30
0.0
 11
4.44782177078658
 21
6.530113894554859
 31
0.0
  0
LINE
  5
209
330
1F
100
AcDbEntity
  8
0
  6
Continuous
 62
     7
370
    30
100
AcDbLine
 10
4.510321783781097
 20
6.655113883877648
 30
0.0
 11
4.44782177078658
 21
6.655113883877649
 31
0.0
  0
LINE
  5
20A
330
1F
100
AcDbEntity
  8
0
  6
Continuous
 62
     7
370
    30
100
AcDbLine
 10
3.932196768997267
 20
6.655113883877647
 30
0.0
 11
3.010321765242644
 21
6.655113883877643
 31
0.0
  0
LINE
  5
20B
330
1F
100
AcDbEntity
  8
0
  6
Continuous
 62
     7
370
    30
100
AcDbLine
 10
3.932196768997268
 20
6.530113894554857
 30
0.0
 11
3.010321765242645
 21
6.530113894554853
 31
0.0
  0
LINE
  5
20C
330
1F
100
AcDbEntity
  8
0
  6
Continuous
 62
     7
370
    30
100
AcDbLine
 10
5.43219678753572
 20
6.655113883877652
 30
0.0
 11
4.510321783781097
 21
6.655113883877648
 31
0.0
  0
LINE
  5
20D
330
1F
100
AcDbEntity
  8
0
  6
Continuous
 62
     7
370
    30
100
AcDbLine
 10
5.43219678753572
 20
6.530113894554862
 30
0.0
 11
4.510321783781097
 21
6.530113894554858
 31
0.0
  0
ARC
  5
20E
330
1F
100
AcDbEntity
  8
0
  6
Continuous
 62
     7
370
    30
100
AcDbCircle
 10
4.14300131423053
 20
6.313886338249915
 30
0.0
 40
0.219874977019251
100
AcDbArc
 50
100.4506872937494
 51
112.2697749834101
  0
LINE
  5
20F
330
1F
100
AcDbEntity
  8
0
  6
Continuous
 62
     7
370
    30
100
AcDbLine
 10
4.059675726349475
 20
6.517360788546488
 30
0.0
 11
4.05719677665318
 21
6.530113894554853
 31
0.0
  0
LINE
  5
210
330
1F
100
AcDbEntity
  8
0
  6
Continuous
 62
     7
370
    30
100
AcDbLine
 10
4.385321776125185
 20
6.530113894554854
 30
0.0
 11
4.38284282642889
 21
6.517360788546489
 31
0.0
  0
LWPOLYLINE
  5
211
330
1F
100
AcDbEntity
  8
0
  6
Continuous
 62
     7
370
    30
100
AcDbPolyline
 90
       10
 70
   128
 43
0.0
 10
4.38284282642889
 20
6.517360788546489
 10
4.376668029427339
 20
6.518923137164772
 10
4.370771272547178
 20
6.520634204065047
 10
4.364773399335121
 20
6.522548035289639
 10
4.359181586432221
 20
6.524439500105943
 10
4.354082173674405
 20
6.526198526452187
 10
4.349366133987832
 20
6.527780234846823
 10
4.34528296282364
 20
6.529025787124764
 10
4.341942988907304
 20
6.529831271153077
 10
4.339400184948659
 20
6.530113894554854
  0
LWPOLYLINE
  5
212
330
1F
100
AcDbEntity
  8
0
  6
Continuous
 62
     7
370
    30
100
AcDbPolyline
 90
       11
 70
   128
 43
0.0
 10
4.38284282642889
 20
6.517360788546489
 10
4.382124461394171
 20
6.513665124572448
 10
4.38132563228898
 20
6.509555425381377
 10
4.379945111570207
 20
6.502453320758829
 10
4.378397154452339
 20
6.494489779421005
 10
4.3767104522706
 20
6.485812419662606
 10
4.374874793476287
 20
6.476368808756005
 10
4.372929924276916
 20
6.466363324340214
 10
4.370912254251878
 20
6.455983330917451
 10
4.369017865302688
 20
6.446237516835259
 10
4.36709862580724
 20
6.436363884229639
  0
LINE
  5
213
330
1F
100
AcDbEntity
  8
0
  6
Continuous
 62
     7
370
    30
100
AcDbLine
 10
4.36709862580724
 20
6.436363884229639
 30
0.0
 11
4.075419926971126
 21
6.436363884229638
 31
0.0
  0
LWPOLYLINE
  5
214
330
1F
100
AcDbEntity
  8
0
  6
Continuous
 62
     7
370
    30
100
AcDbPolyline
 90
       11
 70
   128
 43
0.0
 10
4.075419926971126
 20
6.436363884229638
 10
4.073335341052439
 20
6.447088173675065
 10
4.071275605680011
 20
6.457684571264576
 10
4.06927944040655
 20
6.467953979298164
 10
4.067367332495384
 20
6.477790945660689
 10
4.065554901766072
 20
6.487115097947287
 10
4.063875642831681
 20
6.495754104815409
 10
4.06233688894083
 20
6.503670346699641
 10
4.06096410479935
 20
6.510732705114674
 10
4.059784001765335
 20
6.516803754981387
 10
4.059675726349475
 20
6.517360788546488
  0
LINE
  5
215
330
1F
100
AcDbEntity
  8
0
  6
Continuous
 62
     7
370
    30
100
AcDbLine
 10
4.330652316004789
 20
6.248863863579211
 30
0.0
 11
4.111866236773579
 21
6.24886386357921
 31
0.0
  0
LINE
  5
216
330
1F
100
AcDbEntity
  8
0
  6
Continuous
 62
     7
370
    30
100
AcDbLine
 10
4.330652316004789
 20
6.248863863579211
 30
0.0
 11
4.36709862580724
 21
6.436363884229639
 31
0.0
  0
LINE
  5
217
330
1F
100
AcDbEntity
  8
0
  6
Continuous
 62
     7
370
    30
100
AcDbLine
 10
4.111866236773579
 20
6.24886386357921
 30
0.0
 11
4.075419926971126
 21
6.436363884229638
 31
0.0
  0
LINE
  5
218
330
1F
100
AcDbEntity
  8
0
  6
Continuous
 62
     7
370
    30
100
AcDbLine
 10
6.287219770237265
 20
5.718727389427677
 30
0.0
 11
6.177844807079506
 21
5.609352380437114
 31
0.0
  0
LINE
  5
219
330
1F
100
AcDbEntity
  8
0
  6
Continuous
 62
     7
370
    30
100
AcDbLine
 10
2.264673745698865
 20
5.609352380437099
 30
0.0
 11
2.155298782541105
 21
5.718727389427662
 31
0.0
  0
LINE
  5
21A
330
1F
100
AcDbEntity
  8
0
  6
Continuous
 62
     7
370
    30
100
AcDbLine
 10
2.202173787703713
 20
5.718727389427662
 30
0.0
 11
2.244696803140874
 21
6.53011389455485
 31
0.0
  0
LINE
  5
21B
330
1F
100
AcDbEntity
  8
0
  6
Continuous
 62
     7
370
    30
100
AcDbLine
 10
6.237930072969387
 20
5.764801383843629
 30
0.0
 11
6.240344765074658
 21
5.718727389427677
 31
0.0
  0
ARC
  5
21C
330
1F
100
AcDbEntity
  8
0
  6
Continuous
 62
     7
370
    30
100
AcDbCircle
 10
8.251762969944147
 20
5.940846424152288
 30
0.0
 40
2.021512996039113
100
AcDbArc
 50
181.0039623002332
 51
184.995976251551
  0
LINE
  5
21D
330
1F
100
AcDbEntity
  8
0
  6
Continuous
 62
     7
370
    30
100
AcDbLine
 10
6.197821749637491
 20
6.530113894554864
 30
0.0
 11
6.230560304772244
 21
5.905426380998328
 31
0.0
  0
ARC
  5
21E
330
1F
100
AcDbEntity
  8
0
  6
Continuous
 62
     7
370
    30
100
AcDbCircle
 10
3.199725910346733
 20
5.836713885655776
 30
0.0
 40
0.0767169334519731
100
AcDbArc
 50
322.6357995970602
 51
37.35860482553593
  0
LINE
  5
21F
330
1F
100
AcDbEntity
  8
0
  6
Continuous
 62
     7
370
    30
100
AcDbLine
 10
6.055708231344984
 20
5.905426380998327
 30
0.0
 11
6.088446786479732
 21
6.530113894554864
 31
0.0
  0
ARC
  5
220
330
1F
100
AcDbEntity
  8
0
  6
Continuous
 62
     7
370
    30
100
AcDbCircle
 10
7.887371172701239
 20
5.738928365561201
 30
0.0
 40
1.839214701953622
100
AcDbArc
 50
174.8060922214363
 51
179.1939692267824
  0
LINE
  5
221
330
1F
100
AcDbEntity
  8
0
  6
Continuous
 62
     7
370
    30
100
AcDbLine
 10
6.047475779780301
 20
5.748341888985116
 30
0.0
 11
6.048338463147842
 21
5.764801383843627
 31
0.0
  0
LINE
  5
222
330
1F
100
AcDbEntity
  8
0
  6
Continuous
 62
     7
370
    30
100
AcDbLine
 10
5.488467810821394
 20
5.74834188898511
 30
0.0
 11
6.047475779780301
 21
5.748341888985116
 31
0.0
  0
LINE
  5
223
330
1F
100
AcDbEntity
  8
0
  6
Continuous
 62
     7
370
    30
100
AcDbLine
 10
5.491669947163375
 20
5.82810237091855
 30
0.0
 11
5.488467810821394
 21
5.74834188898511
 31
0.0
  0
LINE
  5
224
330
1F
100
AcDbEntity
  8
0
  6
Continuous
 62
     7
370
    30
100
AcDbLine
 10
2.354071766298632
 20
6.53011389455485
 30
0.0
 11
2.390862674620256
 21
5.828102370918544
 31
0.0
  0
LWPOLYLINE
  5
225
330
1F
100
AcDbEntity
  8
0
  6
Continuous
 62
     7
370
    30
100
AcDbPolyline
 90
       57
 70
   128
 43
0.0
 10
3.350911857383506
 20
5.785792661350584
 10
3.345912635134948
 20
5.780492134249392
 10
3.340400672142948
 20
5.77586177440637
 10
3.334482373844968
 20
5.771988792480722
 10
3.3282114196209
 20
5.768921056252806
 10
3.321653662043342
 20
5.766676403849888
 10
3.314933986336276
 20
5.765297074784015
 10
3.30811516510788
 20
5.764808460428531
 10
3.301263637590644
 20
5.765202989204234
 10
3.294507955632858
 20
5.766473236196898
 10
3.287913238482261
 20
5.768619476403348
 10
3.281538152127802
 20
5.77160920519908
 10
3.275500688539763
 20
5.775386158234063
 10
3.269861493684223
 20
5.779924724137496
 10
3.2646650803803
 20
5.785171608525039
 10
3.260006414197609
 20
5.791027885872823
 10
3.255935361226761
 20
5.797444735078167
 10
3.252478541160241
 20
5.804354305258222
 10
3.249698506608771
 20
5.811626394583758
 10
3.247628330523621
 20
5.81919742378925
 10
3.246276592805677
 20
5.826990430430439
 10
3.245667273177923
 20
5.83485904286489
 10
3.245815991459917
 20
5.842738105178623
 10
3.246712114441161
 20
5.850544421666056
 10
3.24833958230718
 20
5.85813195068094
 10
3.250699128382835
 20
5.865439056268632
 10
3.253758266376746
 20
5.872386539344049
 10
3.257462216921726
 20
5.87884412474547
 10
3.261791766906395
 20
5.884748416538588
 10
3.266697563567547
 20
5.890045002018648
 10
3.27209050793446
 20
5.894633635677027
 10
3.277918460609454
 20
5.898453671547647
 10
3.284131482169432
 20
5.901487436501335
 10
3.29061436727859
 20
5.903676777876543
 10
3.297285936874715
 20
5.904984919431448
 10
3.304103438118359
 20
5.905420697730633
 10
3.310938392493716
 20
5.904975716204431
 10
3.317709327608629
 20
5.903646088231073
 10
3.324367917354699
 20
5.901457150184539
 10
3.330788029855678
 20
5.898450408252012
 10
3.336909899135322
 20
5.894639172279735
 10
3.342671192580368
 20
5.890073785019478
 10
3.347962131458991
 20
5.884839898815111
 10
3.352739376271851
 20
5.87895676344426
 10
3.356943674370107
 20
5.872505594635379
 10
3.360494213353978
 20
5.86560687766328
 10
3.363352420335727
 20
5.858299442079399
 10
3.365488595658447
 20
5.85067572348258
 10
3.366860719807552
 20
5.842878793553381
 10
3.367443273077847
 20
5.834980151465834
 10
3.367241168745907
 20
5.827056576332983
 10
3.366257926771069
 20
5.819257739759143
 10
3.364495820460405
 20
5.811673584038623
 10
3.361982862823639
 20
5.804359768528444
 10
3.358768113294034
 20
5.79745459829756
 10
3.355115715486845
 20
5.791378598488028
 10
3.350911857383506
 20
5.785792661350584
  0
LINE
  5
226
330
1F
100
AcDbEntity
  8
0
  6
Continuous
 62
     7
370
    30
100
AcDbLine
 10
4.625189056824559
 20
5.718727389427665
 30
0.0
 11
2.980387077717379
 21
5.718727389427662
 31
0.0
  0
LINE
  5
227
330
1F
100
AcDbEntity
  8
0
  6
Continuous
 62
     7
370
    30
100
AcDbLine
 10
2.496012073258763
 20
5.609352380437101
 30
0.0
 11
2.496012073258763
 21
5.828102370918544
 31
0.0
  0
LINE
  5
228
330
1F
100
AcDbEntity
  8
0
  6
Continuous
 62
     7
370
    30
100
AcDbLine
 10
2.390862674620256
 20
5.828102370918544
 30
0.0
 11
2.468134288638644
 21
5.828102370918544
 31
0.0
  0
LINE
  5
229
330
1F
100
AcDbEntity
  8
0
  6
Continuous
 62
     7
370
    30
100
AcDbLine
 10
2.496012073258763
 20
5.609352380437101
 30
0.0
 11
2.264673745698865
 21
5.609352380437099
 31
0.0
  0
LINE
  5
22A
330
1F
100
AcDbEntity
  8
0
  6
Continuous
 62
     7
370
    30
100
AcDbLine
 10
2.244696803140874
 20
6.53011389455485
 30
0.0
 11
2.354071766298632
 21
6.53011389455485
 31
0.0
  0
LINE
  5
22B
330
1F
100
AcDbEntity
  8
0
  6
Continuous
 62
     7
370
    30
100
AcDbLine
 10
2.155298782541105
 20
5.718727389427662
 30
0.0
 11
2.202173787703713
 21
5.718727389427662
 31
0.0
  0
LINE
  5
22C
330
1F
100
AcDbEntity
  8
0
  6
Continuous
 62
     7
370
    30
100
AcDbLine
 10
5.999048765879964
 20
5.609352380437113
 30
0.0
 11
5.999048765879964
 21
5.718727389427676
 31
0.0
  0
LINE
  5
22D
330
1F
100
AcDbEntity
  8
0
  6
Continuous
 62
     7
370
    30
100
AcDbLine
 10
5.999048765879964
 20
5.718727389427676
 30
0.0
 11
6.016268700287146
 21
5.718727389427676
 31
0.0
  0
ARC
  5
22E
330
1F
100
AcDbEntity
  8
0
  6
Continuous
 62
     7
370
    30
100
AcDbCircle
 10
6.016268669231954
 20
5.749977381947763
 30
0.0
 40
0.0312500000000009
100
AcDbArc
 50
270.0000000000025
 51
356.9999999999871
  0
LINE
  5
22F
330
1F
100
AcDbEntity
  8
0
  6
Continuous
 62
     7
370
    30
100
AcDbLine
 10
6.048338463147842
 20
5.764801383843627
 30
0.0
 11
6.237930072969387
 21
5.764801383843629
 31
0.0
  0
LINE
  5
230
330
1F
100
AcDbEntity
  8
0
  6
Continuous
 62
     7
370
    30
100
AcDbLine
 10
6.177844807079506
 20
5.609352380437114
 30
0.0
 11
5.999048765879964
 21
5.609352380437113
 31
0.0
  0
LINE
  5
231
330
1F
100
AcDbEntity
  8
0
  6
Continuous
 62
     7
370
    30
100
AcDbLine
 10
6.240344765074658
 20
5.718727389427677
 30
0.0
 11
6.287219770237265
 21
5.718727389427677
 31
0.0
  0
LINE
  5
232
330
1F
100
AcDbEntity
  8
0
  6
Continuous
 62
     7
370
    30
100
AcDbLine
 10
6.230560304772244
 20
5.905426380998328
 30
0.0
 11
6.055708231344984
 21
5.905426380998327
 31
0.0
  0
LINE
  5
233
330
1F
100
AcDbEntity
  8
0
  6
Continuous
 62
     7
370
    30
100
AcDbLine
 10
6.088446786479732
 20
6.530113894554864
 30
0.0
 11
6.197821749637491
 21
6.530113894554864
 31
0.0
  0
ARC
  5
234
330
1F
100
AcDbEntity
  8
0
  6
Continuous
 62
     7
370
    30
100
AcDbCircle
 10
5.460468439776261
 20
5.746488265043324
 30
0.0
 40
0.0280606610870197
100
AcDbArc
 50
278.3826508853508
 51
3.787587900595635
  0
LINE
  5
235
330
1F
100
AcDbEntity
  8
0
  6
Continuous
 62
     7
370
    30
100
AcDbLine
 10
5.451364872771033
 20
5.71872738942767
 30
0.0
 11
5.451364872771033
 21
5.609352380437107
 31
0.0
  0
LINE
  5
236
330
1F
100
AcDbEntity
  8
0
  6
Continuous
 62
     7
370
    30
100
AcDbLine
 10
5.999048765879964
 20
5.718727389427676
 30
0.0
 11
5.451364872771033
 21
5.71872738942767
 31
0.0
  0
LINE
  5
237
330
1F
100
AcDbEntity
  8
0
  6
Continuous
 62
     7
370
    30
100
AcDbLine
 10
2.761637004736889
 20
5.828102370918545
 30
0.0
 11
2.761637004736889
 21
5.609352380437102
 31
0.0
  0
LINE
  5
238
330
1F
100
AcDbEntity
  8
0
  6
Continuous
 62
     7
370
    30
100
AcDbLine
 10
2.980387077717379
 20
5.828102370918545
 30
0.0
 11
2.980387077717379
 21
5.609352380437102
 31
0.0
  0
LINE
  5
239
330
1F
100
AcDbEntity
  8
0
  6
Continuous
 62
     7
370
    30
100
AcDbLine
 10
2.980387077717379
 20
5.828102370918545
 30
0.0
 11
2.849384311072518
 21
5.828102370918545
 31
0.0
  0
LINE
  5
23A
330
1F
100
AcDbEntity
  8
0
  6
Continuous
 62
     7
370
    30
100
AcDbLine
 10
5.058201767958103
 20
5.703102381595759
 30
0.0
 11
5.058201767958103
 21
5.609352380437107
 31
0.0
  0
ELLIPSE
  5
23B
330
1F
100
AcDbEntity
  8
0
  6
Continuous
 62
     7
370
    30
100
AcDbEllipse
 10
5.128995223567772
 20
5.703102381947756
 30
0.0
 11
0.0707934820526886
 21
0.0
 31
0.0
210
0.0
220
0.0
230
1.0
 40
0.4414248189789842
 41
3.141592653589793
 42
4.712388980384695
  0
LINE
  5
23C
330
1F
100
AcDbEntity
  8
0
  6
Continuous
 62
     7
370
    30
100
AcDbLine
 10
5.128995190146449
 20
5.671852384265062
 30
0.0
 11
5.39020675260819
 21
5.671852384265062
 31
0.0
  0
ELLIPSE
  5
23D
330
1F
100
AcDbEntity
  8
0
  6
Continuous
 62
     7
370
    30
100
AcDbEllipse
 10
5.39020676412049
 20
5.703102381947756
 30
0.0
 11
0.0
 21
0.0312499999999991
 31
0.0
210
0.0
220
0.0
230
1.0
 40
0.8094349120352378
 41
3.141592653589793
 42
4.712388980384701
  0
LINE
  5
23E
330
1F
100
AcDbEntity
  8
0
  6
Continuous
 62
     7
370
    30
100
AcDbLine
 10
5.415501620399719
 20
5.703102381595759
 30
0.0
 11
5.415501620399719
 21
5.82810237091855
 31
0.0
  0
LINE
  5
23F
330
1F
100
AcDbEntity
  8
0
  6
Continuous
 62
     7
370
    30
100
AcDbLine
 10
5.491669947163375
 20
5.82810237091855
 30
0.0
 11
5.415501620399719
 21
5.82810237091855
 31
0.0
  0
LINE
  5
240
330
1F
100
AcDbEntity
  8
0
  6
Continuous
 62
     7
370
    30
100
AcDbLine
 10
5.058201767958103
 20
5.703102381595759
 30
0.0
 11
5.216411180309472
 21
5.703102381595759
 31
0.0
  0
ARC
  5
241
330
1F
100
AcDbEntity
  8
0
  6
Continuous
 62
     7
370
    30
100
AcDbCircle
 10
5.245665543796922
 20
5.701093655121593
 30
0.0
 40
0.0293232461556351
100
AcDbArc
 50
176.0719985402076
 51
265.7147680009286
  0
LINE
  5
242
330
1F
100
AcDbEntity
  8
0
  6
Continuous
 62
     7
370
    30
100
AcDbLine
 10
4.949948571841596
 20
5.82810237091855
 30
0.0
 11
4.949948571841596
 21
5.609352380437107
 31
0.0
  0
LINE
  5
243
330
1F
100
AcDbEntity
  8
0
  6
Continuous
 62
     7
370
    30
100
AcDbLine
 10
5.058201767958103
 20
5.82810237091855
 30
0.0
 11
5.058201767958103
 21
5.703102381595759
 31
0.0
  0
LINE
  5
244
330
1F
100
AcDbEntity
  8
0
  6
Continuous
 62
     7
370
    30
100
AcDbLine
 10
5.058201767958103
 20
5.82810237091855
 30
0.0
 11
4.949948571841596
 21
5.82810237091855
 31
0.0
  0
LINE
  5
245
330
1F
100
AcDbEntity
  8
0
  6
Continuous
 62
     7
370
    30
100
AcDbLine
 10
5.216411180309472
 20
5.703102381595759
 30
0.0
 11
5.216411180309472
 21
5.82810237091855
 31
0.0
  0
LINE
  5
246
330
1F
100
AcDbEntity
  8
0
  6
Continuous
 62
     7
370
    30
100
AcDbLine
 10
5.216411180309472
 20
5.82810237091855
 30
0.0
 11
5.058201767958103
 21
5.82810237091855
 31
0.0
  0
LINE
  5
247
330
1F
100
AcDbEntity
  8
0
  6
Continuous
 62
     7
370
    30
100
AcDbLine
 10
4.733442216274823
 20
5.828102370918548
 30
0.0
 11
4.733442216274824
 21
5.609352380437106
 31
0.0
  0
LINE
  5
248
330
1F
100
AcDbEntity
  8
0
  6
Continuous
 62
     7
370
    30
100
AcDbLine
 10
4.842817216098826
 20
5.828102370918547
 30
0.0
 11
4.842817216098826
 21
5.609352380437104
 31
0.0
  0
LINE
  5
249
330
1F
100
AcDbEntity
  8
0
  6
Continuous
 62
     7
370
    30
100
AcDbLine
 10
4.822296219825792
 20
5.828102370918547
 30
0.0
 11
4.733442216274823
 21
5.828102370918548
 31
0.0
  0
LINE
  5
24A
330
1F
100
AcDbEntity
  8
0
  6
Continuous
 62
     7
370
    30
100
AcDbLine
 10
4.625189056824559
 20
5.703102381595757
 30
0.0
 11
4.62518905682456
 21
5.609352380437104
 31
0.0
  0
LINE
  5
24B
330
1F
100
AcDbEntity
  8
0
  6
Continuous
 62
     7
370
    30
100
AcDbLine
 10
4.625189056824559
 20
5.828102370918547
 30
0.0
 11
4.625189056824559
 21
5.703102381595757
 31
0.0
  0
LINE
  5
24C
330
1F
100
AcDbEntity
  8
0
  6
Continuous
 62
     7
370
    30
100
AcDbLine
 10
4.733442216274823
 20
5.828102370918548
 30
0.0
 11
4.625189056824559
 21
5.828102370918547
 31
0.0
  0
LINE
  5
24D
330
1F
100
AcDbEntity
  8
0
  6
Continuous
 62
     7
370
    30
100
AcDbLine
 10
5.216411180309472
 20
5.703102381595759
 30
0.0
 11
5.387164334421131
 21
5.703102381595759
 31
0.0
  0
LWPOLYLINE
  5
24E
330
1F
100
AcDbEntity
  8
0
  6
Continuous
 62
     7
370
    30
100
AcDbPolyline
 90
       14
 70
   128
 43
0.0
 10
5.387164334421131
 20
5.703102381595759
 10
5.387050449070078
 20
5.699335603443236
 10
5.386710332999127
 20
5.695623769655989
 10
5.386148972817341
 20
5.692020981275708
 10
5.385374581763173
 20
5.688579781028748
 10
5.384398453039495
 20
5.685350365001903
 10
5.38323481314863
 20
5.682379794318189
 10
5.381900675227371
 20
5.679711426810065
 10
5.380415399052075
 20
5.677384128695211
 10
5.378800691038653
 20
5.675431889580978
 10
5.377080090915172
 20
5.673883125805763
 10
5.37527867839191
 20
5.672760442108434
 10
5.373422779831408
 20
5.672080228299655
 10
5.371539381588586
 20
5.671852384265062
  0
LINE
  5
24F
330
1F
100
AcDbEntity
  8
0
  6
Continuous
 62
     7
370
    30
100
AcDbLine
 10
5.387164334421131
 20
5.82810237091855
 30
0.0
 11
5.387164334421131
 21
5.703102381595759
 31
0.0
  0
LINE
  5
250
330
1F
100
AcDbEntity
  8
0
  6
Continuous
 62
     7
370
    30
100
AcDbLine
 10
5.216411180309472
 20
5.82810237091855
 30
0.0
 11
5.387164334421131
 21
5.82810237091855
 31
0.0
  0
LINE
  5
251
330
1F
100
AcDbEntity
  8
0
  6
Continuous
 62
     7
370
    30
100
AcDbLine
 10
5.387164334421131
 20
5.703102381595759
 30
0.0
 11
5.415501620399719
 21
5.703102381595759
 31
0.0
  0
LINE
  5
252
330
1F
100
AcDbEntity
  8
0
  6
Continuous
 62
     7
370
    30
100
AcDbLine
 10
5.415501620399719
 20
5.82810237091855
 30
0.0
 11
5.387164334421131
 21
5.82810237091855
 31
0.0
  0
LINE
  5
253
330
1F
100
AcDbEntity
  8
0
  6
Continuous
 62
     7
370
    30
100
AcDbLine
 10
2.107223471244538
 20
5.515602381570086
 30
0.0
 11
1.9222909676006
 21
5.835914884001057
 31
0.0
  0
ARC
  5
254
330
1F
100
AcDbEntity
  8
0
  6
Continuous
 62
     7
370
    30
100
AcDbCircle
 10
1.935822570257449
 20
5.843727381947749
 30
0.0
 40
0.0156250000000002
100
AcDbArc
 50
89.99999999999836
 51
210.0000000000041
  0
ARC
  5
255
330
1F
100
AcDbEntity
  8
0
  6
Continuous
 62
     7
370
    30
100
AcDbCircle
 10
2.052275611135689
 20
5.843727381947749
 30
0.0
 40
0.0156250000000001
100
AcDbArc
 50
29.99999999999973
 51
90.0
  0
LINE
  5
256
330
1F
100
AcDbEntity
  8
0
  6
Continuous
 62
     7
370
    30
100
AcDbLine
 10
2.187592062819709
 20
5.640602386934358
 30
0.0
 11
2.065807189688956
 21
5.851539873499847
 31
0.0
  0
ARC
  5
257
330
1F
100
AcDbEntity
  8
0
  6
Continuous
 62
     7
370
    30
100
AcDbCircle
 10
2.241718668213537
 20
5.671852381947749
 30
0.0
 40
0.0625000000000001
100
AcDbArc
 50
210.0000000000008
 51
270.0000000000008
  0
LINE
  5
258
330
1F
100
AcDbEntity
  8
0
  6
Continuous
 62
     7
370
    30
100
AcDbLine
 10
2.565009289530367
 20
5.609352380437101
 30
0.0
 11
2.24171862421172
 21
5.609352380437099
 31
0.0
  0
LINE
  5
259
330
1F
100
AcDbEntity
  8
0
  6
Continuous
 62
     7
370
    30
100
AcDbLine
 10
2.594509335409987
 20
5.453102382325412
 30
0.0
 11
2.594509335409988
 21
5.213602389674765
 31
0.0
  0
LINE
  5
25A
330
1F
100
AcDbEntity
  8
0
  6
Continuous
 62
     7
370
    30
100
AcDbLine
 10
2.594509335409988
 20
5.213602389674765
 30
0.0
 11
2.658759299855583
 21
5.174997088979827
 31
0.0
  0
LINE
  5
25B
330
1F
100
AcDbEntity
  8
0
  6
Continuous
 62
     7
370
    30
100
AcDbLine
 10
2.658759299855583
 20
5.174997088979827
 30
0.0
 11
2.723009264301177
 21
5.213602389674766
 31
0.0
  0
LINE
  5
25C
330
1F
100
AcDbEntity
  8
0
  6
Continuous
 62
     7
370
    30
100
AcDbLine
 10
2.723009264301177
 20
5.213602389674766
 30
0.0
 11
2.723009264301177
 21
5.453102382325414
 31
0.0
  0
LINE
  5
25D
330
1F
100
AcDbEntity
  8
0
  6
Continuous
 62
     7
370
    30
100
AcDbLine
 10
3.236884241306924
 20
5.609352380437104
 30
0.0
 11
2.752509310180795
 21
5.609352380437102
 31
0.0
  0
ARC
  5
25E
330
1F
100
AcDbEntity
  8
0
  6
Continuous
 62
     7
370
    30
100
AcDbCircle
 10
3.236884276389186
 20
5.593727381947753
 30
0.0
 40
0.0156249999999996
100
AcDbArc
 50
0.0
 51
90.0
  0
LINE
  5
25F
330
1F
100
AcDbEntity
  8
0
  6
Continuous
 62
     7
370
    30
100
AcDbLine
 10
3.252509267471956
 20
5.499977381758922
 30
0.0
 11
3.252509267471956
 21
5.593727381771755
 31
0.0
  0
ARC
  5
260
330
1F
100
AcDbEntity
  8
0
  6
Continuous
 62
     7
370
    30
100
AcDbCircle
 10
3.268134276389186
 20
5.499977381947753
 30
0.0
 40
0.015625
100
AcDbArc
 50
180.0
 51
270.0000000000008
  0
LINE
  5
261
330
1F
100
AcDbEntity
  8
0
  6
Continuous
 62
     7
370
    30
100
AcDbLine
 10
3.393134282959777
 20
5.484352381947753
 30
0.0
 11
3.268134293636987
 21
5.484352381947753
 31
0.0
  0
ARC
  5
262
330
1F
100
AcDbEntity
  8
0
  6
Continuous
 62
     7
370
    30
100
AcDbCircle
 10
3.393134276389186
 20
5.468727381947752
 30
0.0
 40
0.0156250000000009
100
AcDbArc
 50
0.0
 51
90.0
  0
LINE
  5
263
330
1F
100
AcDbEntity
  8
0
  6
Continuous
 62
     7
370
    30
100
AcDbLine
 10
3.408759309124808
 20
5.468727382136584
 30
0.0
 11
3.408759309124811
 21
4.453102415035371
 31
0.0
  0
ARC
  5
264
330
1F
100
AcDbEntity
  8
0
  6
Continuous
 62
     7
370
    30
100
AcDbCircle
 10
4.00250927638919
 20
4.453102381947755
 30
0.0
 40
0.5937500000000005
100
AcDbArc
 50
180.0000000000009
 51
270.0000000000009
  0
LINE
  5
265
330
1F
100
AcDbEntity
  8
0
  6
Continuous
 62
     7
370
    30
100
AcDbLine
 10
4.002509276741188
 20
3.859352447418999
 30
0.0
 11
5.721259294927644
 21
3.859352447419005
 31
0.0
  0
LINE
  5
266
330
1F
100
AcDbEntity
  8
0
  6
Continuous
 62
     7
370
    30
100
AcDbLine
 10
5.721259294927644
 20
3.765602437093791
 30
0.0
 11
5.721259294927644
 21
3.859352447419005
 31
0.0
  0
ARC
  5
267
330
1F
100
AcDbEntity
  8
0
  6
Continuous
 62
     7
370
    30
100
AcDbCircle
 10
5.752509276389192
 20
3.765602381947762
 30
0.0
 40
0.0312500000000005
100
AcDbArc
 50
180.0000000000016
 51
270.0000000000008
  0
LINE
  5
268
330
1F
100
AcDbEntity
  8
0
  6
Continuous
 62
     7
370
    30
100
AcDbLine
 10
5.752509347257706
 20
3.734352384763729
 30
0.0
 11
5.815009305252858
 21
3.734352384763729
 31
0.0
  0
ARC
  5
269
330
1F
100
AcDbEntity
  8
0
  6
Continuous
 62
     7
370
    30
100
AcDbCircle
 10
5.815009276389192
 20
3.765602381947762
 30
0.0
 40
0.0312500000000005
100
AcDbArc
 50
270.0000000000008
 51
0.0
  0
LINE
  5
26A
330
1F
100
AcDbEntity
  8
0
  6
Continuous
 62
     7
370
    30
100
AcDbLine
 10
5.846259210917948
 20
3.765602437093792
 30
0.0
 11
5.846259210917948
 21
3.796852342758882
 31
0.0
  0
LINE
  5
26B
330
1F
100
AcDbEntity
  8
0
  6
Continuous
 62
     7
370
    30
100
AcDbLine
 10
5.869696713499251
 20
3.773414840177578
 30
0.0
 11
5.846259210917948
 21
3.796852342758882
 31
0.0
  0
LINE
  5
26C
330
1F
100
AcDbEntity
  8
0
  6
Continuous
 62
     7
370
    30
100
AcDbLine
 10
5.893134216080555
 20
3.796852342758882
 30
0.0
 11
5.869696713499251
 21
3.773414840177578
 31
0.0
  0
LINE
  5
26D
330
1F
100
AcDbEntity
  8
0
  6
Continuous
 62
     7
370
    30
100
AcDbLine
 10
5.916571718661859
 20
3.773414840177578
 30
0.0
 11
5.893134216080555
 21
3.796852342758882
 31
0.0
  0
LINE
  5
26E
330
1F
100
AcDbEntity
  8
0
  6
Continuous
 62
     7
370
    30
100
AcDbLine
 10
5.940009221243162
 20
3.796852342758882
 30
0.0
 11
5.916571718661859
 21
3.773414840177578
 31
0.0
  0
LINE
  5
26F
330
1F
100
AcDbEntity
  8
0
  6
Continuous
 62
     7
370
    30
100
AcDbLine
 10
5.963446723824466
 20
3.773414840177578
 30
0.0
 11
5.940009221243162
 21
3.796852342758882
 31
0.0
  0
LINE
  5
270
330
1F
100
AcDbEntity
  8
0
  6
Continuous
 62
     7
370
    30
100
AcDbLine
 10
5.986884226405769
 20
3.796852342758882
 30
0.0
 11
5.963446723824466
 21
3.773414840177578
 31
0.0
  0
LINE
  5
271
330
1F
100
AcDbEntity
  8
0
  6
Continuous
 62
     7
370
    30
100
AcDbLine
 10
6.010321728987073
 20
3.773414840177578
 30
0.0
 11
5.986884226405769
 21
3.796852342758882
 31
0.0
  0
LINE
  5
272
330
1F
100
AcDbEntity
  8
0
  6
Continuous
 62
     7
370
    30
100
AcDbLine
 10
6.033759231568376
 20
3.796852342758882
 30
0.0
 11
6.010321728987073
 21
3.773414840177578
 31
0.0
  0
LINE
  5
273
330
1F
100
AcDbEntity
  8
0
  6
Continuous
 62
     7
370
    30
100
AcDbLine
 10
6.057196734149679
 20
3.773414840177578
 30
0.0
 11
6.033759231568376
 21
3.796852342758882
 31
0.0
  0
LINE
  5
274
330
1F
100
AcDbEntity
  8
0
  6
Continuous
 62
     7
370
    30
100
AcDbLine
 10
6.080634236730984
 20
3.796852342758882
 30
0.0
 11
6.057196734149679
 21
3.773414840177578
 31
0.0
  0
LINE
  5
275
330
1F
100
AcDbEntity
  8
0
  6
Continuous
 62
     7
370
    30
100
AcDbLine
 10
6.104071739312287
 20
3.773414840177578
 30
0.0
 11
6.080634236730984
 21
3.796852342758882
 31
0.0
  0
LINE
  5
276
330
1F
100
AcDbEntity
  8
0
  6
Continuous
 62
     7
370
    30
100
AcDbLine
 10
6.12750924189359
 20
3.796852342758882
 30
0.0
 11
6.104071739312287
 21
3.773414840177578
 31
0.0
  0
LINE
  5
277
330
1F
100
AcDbEntity
  8
0
  6
Continuous
 62
     7
370
    30
100
AcDbLine
 10
6.150946744474894
 20
3.773414840177579
 30
0.0
 11
6.12750924189359
 21
3.796852342758882
 31
0.0
  0
LINE
  5
278
330
1F
100
AcDbEntity
  8
0
  6
Continuous
 62
     7
370
    30
100
AcDbLine
 10
6.174384247056197
 20
3.796852342758882
 30
0.0
 11
6.150946744474894
 21
3.773414840177579
 31
0.0
  0
LINE
  5
279
330
1F
100
AcDbEntity
  8
0
  6
Continuous
 62
     7
370
    30
100
AcDbLine
 10
6.197821749637501
 20
3.773414840177579
 30
0.0
 11
6.174384247056197
 21
3.796852342758882
 31
0.0
  0
LINE
  5
27A
330
1F
100
AcDbEntity
  8
0
  6
Continuous
 62
     7
370
    30
100
AcDbLine
 10
6.221259252218804
 20
3.796852342758882
 30
0.0
 11
6.197821749637501
 21
3.773414840177579
 31
0.0
  0
LINE
  5
27B
330
1F
100
AcDbEntity
  8
0
  6
Continuous
 62
     7
370
    30
100
AcDbLine
 10
6.221259252218804
 20
3.796852342758882
 30
0.0
 11
6.221259252218805
 21
3.578102416443365
 31
0.0
  0
ARC
  5
27C
330
1F
100
AcDbEntity
  8
0
  6
Continuous
 62
     7
370
    30
100
AcDbCircle
 10
6.190009276389193
 20
3.578102381947763
 30
0.0
 40
0.0312500000000005
100
AcDbArc
 50
270.0000000000008
 51
0.0
  0
LINE
  5
27D
330
1F
100
AcDbEntity
  8
0
  6
Continuous
 62
     7
370
    30
100
AcDbLine
 10
5.721259294927645
 20
3.546852364113301
 30
0.0
 11
6.190009346553716
 21
3.546852364113302
 31
0.0
  0
ARC
  5
27E
330
1F
100
AcDbEntity
  8
0
  6
Continuous
 62
     7
370
    30
100
AcDbCircle
 10
5.721259276389193
 20
3.609352381947761
 30
0.0
 40
0.0625
100
AcDbArc
 50
180.0000000000012
 51
270.0000000000008
  0
LINE
  5
27F
330
1F
100
AcDbEntity
  8
0
  6
Continuous
 62
     7
370
    30
100
AcDbLine
 10
5.658759336932494
 20
3.609352322108452
 30
0.0
 11
5.658759336932494
 21
3.671852426768576
 31
0.0
  0
ARC
  5
280
330
1F
100
AcDbEntity
  8
0
  6
Continuous
 62
     7
370
    30
100
AcDbCircle
 10
5.596259276389192
 20
3.671852381947761
 30
0.0
 40
0.0625000000000009
100
AcDbArc
 50
0.0
 51
90.0
  0
LINE
  5
281
330
1F
100
AcDbEntity
  8
0
  6
Continuous
 62
     7
370
    30
100
AcDbLine
 10
4.033759274071885
 20
3.734352384763723
 30
0.0
 11
5.596259232272368
 21
3.734352384763728
 31
0.0
  0
ARC
  5
282
330
1F
100
AcDbEntity
  8
0
  6
Continuous
 62
     7
370
    30
100
AcDbCircle
 10
4.033759276389189
 20
4.484352381947756
 30
0.0
 40
0.75
100
AcDbArc
 50
180.000000000001
 51
270.000000000001
  0
LINE
  5
283
330
1F
100
AcDbEntity
  8
0
  6
Continuous
 62
     7
370
    30
100
AcDbLine
 10
3.283759246469533
 20
5.046852382651745
 30
0.0
 11
3.283759246469535
 21
4.484352394032947
 31
0.0
  0
ARC
  5
284
330
1F
100
AcDbEntity
  8
0
  6
Continuous
 62
     7
370
    30
100
AcDbCircle
 10
3.221259276389188
 20
5.046852381947752
 30
0.0
 40
0.0625000000000009
100
AcDbArc
 50
0.0
 51
90.0
  0
ARC
  5
285
330
1F
100
AcDbEntity
  8
0
  6
Continuous
 62
     7
370
    30
100
AcDbCircle
 10
3.221259276389187
 20
5.234352381947752
 30
0.0
 40
0.1250000000000004
100
AcDbArc
 50
180.0
 51
270.0000000000012
  0
LINE
  5
286
330
1F
100
AcDbEntity
  8
0
  6
Continuous
 62
     7
370
    30
100
AcDbLine
 10
3.09625929915159
 20
5.23435238496905
 30
0.0
 11
3.09625929915159
 21
5.421852382703077
 31
0.0
  0
ARC
  5
287
330
1F
100
AcDbEntity
  8
0
  6
Continuous
 62
     7
370
    30
100
AcDbCircle
 10
3.033759276389186
 20
5.421852381947752
 30
0.0
 40
0.0625
100
AcDbArc
 50
0.0
 51
90.0000000000004
  0
LINE
  5
288
330
1F
100
AcDbEntity
  8
0
  6
Continuous
 62
     7
370
    30
100
AcDbLine
 10
3.033759267823952
 20
5.484352381947752
 30
0.0
 11
2.814201730838021
 21
5.484352381947751
 31
0.0
  0
ARC
  5
289
330
1F
100
AcDbEntity
  8
0
  6
Continuous
 62
     7
370
    30
100
AcDbCircle
 10
2.814201678605489
 20
5.453102381947751
 30
0.0
 40
0.03125
100
AcDbArc
 50
90.0
 51
178.5000000000005
  0
LINE
  5
28A
330
1F
100
AcDbEntity
  8
0
  6
Continuous
 62
     7
370
    30
100
AcDbLine
 10
2.782962385050943
 20
5.453920410792146
 30
0.0
 11
2.774736386745045
 21
5.139784369093505
 31
0.0
  0
ARC
  5
28B
330
1F
100
AcDbEntity
  8
0
  6
Continuous
 62
     7
370
    30
100
AcDbCircle
 10
2.743497153584439
 20
5.140602381947751
 30
0.0
 40
0.0312500000000009
100
AcDbArc
 50
270.0000000000017
 51
358.4999999999997
  0
LINE
  5
28C
330
1F
100
AcDbEntity
  8
0
  6
Continuous
 62
     7
370
    30
100
AcDbLine
 10
2.574021412088227
 20
5.109352377313137
 30
0.0
 11
2.743497187622939
 21
5.109352377313138
 31
0.0
  0
ARC
  5
28D
330
1F
100
AcDbEntity
  8
0
  6
Continuous
 62
     7
370
    30
100
AcDbCircle
 10
2.574021399193935
 20
5.140602381947751
 30
0.0
 40
0.0312500000000001
100
AcDbArc
 50
181.5000000000019
 51
270.0000000000008
  0
LINE
  5
28E
330
1F
100
AcDbEntity
  8
0
  6
Continuous
 62
     7
370
    30
100
AcDbLine
 10
2.542782066301148
 20
5.139784369093504
 30
0.0
 11
2.53455621466022
 21
5.453920410792145
 31
0.0
  0
ARC
  5
28F
330
1F
100
AcDbEntity
  8
0
  6
Continuous
 62
     7
370
    30
100
AcDbCircle
 10
2.503316874172884
 20
5.45310238194775
 30
0.0
 40
0.03125
100
AcDbArc
 50
1.49999999999946
 51
90.0
  0
LINE
  5
290
330
1F
100
AcDbEntity
  8
0
  6
Continuous
 62
     7
370
    30
100
AcDbLine
 10
2.503316868873142
 20
5.48435238194775
 30
0.0
 11
2.161350032636549
 21
5.484352381947749
 31
0.0
  0
ARC
  5
291
330
1F
100
AcDbEntity
  8
0
  6
Continuous
 62
     7
370
    30
100
AcDbCircle
 10
2.161350019159649
 20
5.546852381947749
 30
0.0
 40
0.0625000000000002
100
AcDbArc
 50
210.0000000000016
 51
270.0000000000012
  0
LINE
  5
292
330
1F
100
AcDbEntity
  8
0
  6
Continuous
 62
     7
370
    30
100
AcDbLine
 10
1.935822571282359
 20
5.859352386582361
 30
0.0
 11
2.052275586007196
 21
5.859352386582362
 31
0.0
  0
LINE
  5
293
330
1F
100
AcDbEntity
  8
0
  6
Continuous
 62
     7
370
    30
100
AcDbLine
 10
5.752509347257705
 20
4.527684780120197
 30
0.0
 11
5.752509347257706
 21
3.734352384763729
 31
0.0
  0
LINE
  5
294
330
1F
100
AcDbEntity
  8
0
  6
Continuous
 62
     7
370
    30
100
AcDbLine
 10
5.815009305252858
 20
3.734352384763729
 30
0.0
 11
5.815009305252856
 21
4.527684780120197
 31
0.0
  0
LINE
  5
295
330
1F
100
AcDbEntity
  8
0
  6
Continuous
 62
     7
370
    30
100
AcDbLine
 10
5.869696713499251
 20
3.773414840177578
 30
0.0
 11
5.869696713499249
 21
4.945289895910267
 31
0.0
  0
LINE
  5
296
330
1F
100
AcDbEntity
  8
0
  6
Continuous
 62
     7
370
    30
100
AcDbLine
 10
5.846259210917945
 20
4.921852393328964
 30
0.0
 11
5.869696713499249
 21
4.945289895910267
 31
0.0
  0
LINE
  5
297
330
1F
100
AcDbEntity
  8
0
  6
Continuous
 62
     7
370
    30
100
AcDbLine
 10
5.846259210917948
 20
3.796852342758882
 30
0.0
 11
5.846259210917945
 21
4.921852393328964
 31
0.0
  0
LINE
  5
298
330
1F
100
AcDbEntity
  8
0
  6
Continuous
 62
     7
370
    30
100
AcDbLine
 10
6.010321728987073
 20
3.773414840177578
 30
0.0
 11
6.01032172898707
 21
4.945289895910267
 31
0.0
  0
LINE
  5
299
330
1F
100
AcDbEntity
  8
0
  6
Continuous
 62
     7
370
    30
100
AcDbLine
 10
5.986884226405769
 20
3.796852342758882
 30
0.0
 11
5.986884226405766
 21
4.921852393328964
 31
0.0
  0
LINE
  5
29A
330
1F
100
AcDbEntity
  8
0
  6
Continuous
 62
     7
370
    30
100
AcDbLine
 10
5.986884226405766
 20
4.921852393328964
 30
0.0
 11
6.01032172898707
 21
4.945289895910267
 31
0.0
  0
LINE
  5
29B
330
1F
100
AcDbEntity
  8
0
  6
Continuous
 62
     7
370
    30
100
AcDbLine
 10
6.150946744474894
 20
3.773414840177579
 30
0.0
 11
6.15094674447489
 21
4.945289895910269
 31
0.0
  0
LINE
  5
29C
330
1F
100
AcDbEntity
  8
0
  6
Continuous
 62
     7
370
    30
100
AcDbLine
 10
6.12750924189359
 20
3.796852342758882
 30
0.0
 11
6.127509241893587
 21
4.921852393328965
 31
0.0
  0
LINE
  5
29D
330
1F
100
AcDbEntity
  8
0
  6
Continuous
 62
     7
370
    30
100
AcDbLine
 10
6.127509241893587
 20
4.921852393328965
 30
0.0
 11
6.15094674447489
 21
4.945289895910269
 31
0.0
  0
LINE
  5
29E
330
1F
100
AcDbEntity
  8
0
  6
Continuous
 62
     7
370
    30
100
AcDbLine
 10
6.197821749637501
 20
3.773414840177579
 30
0.0
 11
6.197821749637498
 21
4.945289895910269
 31
0.0
  0
LINE
  5
29F
330
1F
100
AcDbEntity
  8
0
  6
Continuous
 62
     7
370
    30
100
AcDbLine
 10
6.197821749637498
 20
4.945289895910269
 30
0.0
 11
6.221259252218801
 21
4.921852393328965
 31
0.0
  0
LINE
  5
2A0
330
1F
100
AcDbEntity
  8
0
  6
Continuous
 62
     7
370
    30
100
AcDbLine
 10
6.221259252218804
 20
3.796852342758882
 30
0.0
 11
6.221259252218801
 21
4.921852393328965
 31
0.0
  0
LINE
  5
2A1
330
1F
100
AcDbEntity
  8
0
  6
Continuous
 62
     7
370
    30
100
AcDbLine
 10
5.963446723824466
 20
3.773414840177578
 30
0.0
 11
5.963446723824462
 21
4.945289895910267
 31
0.0
  0
LINE
  5
2A2
330
1F
100
AcDbEntity
  8
0
  6
Continuous
 62
     7
370
    30
100
AcDbLine
 10
5.963446723824462
 20
4.945289895910267
 30
0.0
 11
5.986884226405766
 21
4.921852393328964
 31
0.0
  0
LINE
  5
2A3
330
1F
100
AcDbEntity
  8
0
  6
Continuous
 62
     7
370
    30
100
AcDbLine
 10
6.174384247056197
 20
3.796852342758882
 30
0.0
 11
6.174384247056194
 21
4.921852393328965
 31
0.0
  0
LINE
  5
2A4
330
1F
100
AcDbEntity
  8
0
  6
Continuous
 62
     7
370
    30
100
AcDbLine
 10
6.174384247056194
 20
4.921852393328965
 30
0.0
 11
6.197821749637498
 21
4.945289895910269
 31
0.0
  0
LINE
  5
2A5
330
1F
100
AcDbEntity
  8
0
  6
Continuous
 62
     7
370
    30
100
AcDbLine
 10
6.104071739312287
 20
3.773414840177578
 30
0.0
 11
6.104071739312283
 21
4.945289895910269
 31
0.0
  0
LINE
  5
2A6
330
1F
100
AcDbEntity
  8
0
  6
Continuous
 62
     7
370
    30
100
AcDbLine
 10
6.104071739312283
 20
4.945289895910269
 30
0.0
 11
6.127509241893587
 21
4.921852393328965
 31
0.0
  0
LINE
  5
2A7
330
1F
100
AcDbEntity
  8
0
  6
Continuous
 62
     7
370
    30
100
AcDbLine
 10
6.080634236730984
 20
3.796852342758882
 30
0.0
 11
6.08063423673098
 21
4.921852393328965
 31
0.0
  0
LINE
  5
2A8
330
1F
100
AcDbEntity
  8
0
  6
Continuous
 62
     7
370
    30
100
AcDbLine
 10
6.08063423673098
 20
4.921852393328965
 30
0.0
 11
6.104071739312283
 21
4.945289895910269
 31
0.0
  0
LINE
  5
2A9
330
1F
100
AcDbEntity
  8
0
  6
Continuous
 62
     7
370
    30
100
AcDbLine
 10
5.940009221243162
 20
3.796852342758882
 30
0.0
 11
5.940009221243159
 21
4.921852393328964
 31
0.0
  0
LINE
  5
2AA
330
1F
100
AcDbEntity
  8
0
  6
Continuous
 62
     7
370
    30
100
AcDbLine
 10
5.940009221243159
 20
4.921852393328964
 30
0.0
 11
5.963446723824462
 21
4.945289895910267
 31
0.0
  0
LINE
  5
2AB
330
1F
100
AcDbEntity
  8
0
  6
Continuous
 62
     7
370
    30
100
AcDbLine
 10
6.15094674447489
 20
4.945289895910269
 30
0.0
 11
6.174384247056194
 21
4.921852393328965
 31
0.0
  0
LINE
  5
2AC
330
1F
100
AcDbEntity
  8
0
  6
Continuous
 62
     7
370
    30
100
AcDbLine
 10
6.057196734149679
 20
3.773414840177578
 30
0.0
 11
6.057196734149677
 21
4.945289895910267
 31
0.0
  0
LINE
  5
2AD
330
1F
100
AcDbEntity
  8
0
  6
Continuous
 62
     7
370
    30
100
AcDbLine
 10
6.033759231568376
 20
3.796852342758882
 30
0.0
 11
6.033759231568373
 21
4.921852393328964
 31
0.0
  0
LINE
  5
2AE
330
1F
100
AcDbEntity
  8
0
  6
Continuous
 62
     7
370
    30
100
AcDbLine
 10
6.033759231568373
 20
4.921852393328964
 30
0.0
 11
6.057196734149677
 21
4.945289895910267
 31
0.0
  0
LINE
  5
2AF
330
1F
100
AcDbEntity
  8
0
  6
Continuous
 62
     7
370
    30
100
AcDbLine
 10
6.01032172898707
 20
4.945289895910267
 30
0.0
 11
6.033759231568373
 21
4.921852393328964
 31
0.0
  0
LINE
  5
2B0
330
1F
100
AcDbEntity
  8
0
  6
Continuous
 62
     7
370
    30
100
AcDbLine
 10
5.869696713499249
 20
4.945289895910267
 30
0.0
 11
5.893134216080552
 21
4.921852393328964
 31
0.0
  0
LINE
  5
2B1
330
1F
100
AcDbEntity
  8
0
  6
Continuous
 62
     7
370
    30
100
AcDbLine
 10
5.893134216080555
 20
3.796852342758882
 30
0.0
 11
5.893134216080552
 21
4.921852393328964
 31
0.0
  0
LINE
  5
2B2
330
1F
100
AcDbEntity
  8
0
  6
Continuous
 62
     7
370
    30
100
AcDbLine
 10
5.916571718661859
 20
3.773414840177578
 30
0.0
 11
5.916571718661855
 21
4.945289895910267
 31
0.0
  0
LINE
  5
2B3
330
1F
100
AcDbEntity
  8
0
  6
Continuous
 62
     7
370
    30
100
AcDbLine
 10
5.893134216080552
 20
4.921852393328964
 30
0.0
 11
5.916571718661855
 21
4.945289895910267
 31
0.0
  0
LINE
  5
2B4
330
1F
100
AcDbEntity
  8
0
  6
Continuous
 62
     7
370
    30
100
AcDbLine
 10
5.916571718661855
 20
4.945289895910267
 30
0.0
 11
5.940009221243159
 21
4.921852393328964
 31
0.0
  0
LINE
  5
2B5
330
1F
100
AcDbEntity
  8
0
  6
Continuous
 62
     7
370
    30
100
AcDbLine
 10
6.057196734149677
 20
4.945289895910267
 30
0.0
 11
6.08063423673098
 21
4.921852393328965
 31
0.0
  0
LINE
  5
2B6
330
1F
100
AcDbEntity
  8
0
  6
Continuous
 62
     7
370
    30
100
AcDbLine
 10
4.096259277899836
 20
5.468727382136584
 30
0.0
 11
3.408759309124808
 21
5.468727382136584
 31
0.0
  0
ARC
  5
2B7
330
1F
100
AcDbEntity
  8
0
  6
Continuous
 62
     7
370
    30
100
AcDbCircle
 10
6.455634276389185
 20
5.843727381947764
 30
0.0
 40
0.0156250000000009
100
AcDbArc
 50
0.0
 51
90.0
  0
LINE
  5
2B8
330
1F
100
AcDbEntity
  8
0
  6
Continuous
 62
     7
370
    30
100
AcDbLine
 10
6.471259230864378
 20
5.809796565722115
 30
0.0
 11
6.471259230864377
 21
5.84372739708359
 31
0.0
  0
ARC
  5
2B9
330
1F
100
AcDbEntity
  8
0
  6
Continuous
 62
     7
370
    30
100
AcDbCircle
 10
6.440009276389185
 20
5.809796555771924
 30
0.0
 40
0.0312500000000009
100
AcDbArc
 50
314.9999999999997
 51
0.0
  0
LINE
  5
2BA
330
1F
100
AcDbEntity
  8
0
  6
Continuous
 62
     7
370
    30
100
AcDbLine
 10
6.462106309933035
 20
5.78769947098964
 30
0.0
 11
6.239565094081485
 21
5.565158209305283
 31
0.0
  0
ARC
  5
2BB
330
1F
100
AcDbEntity
  8
0
  6
Continuous
 62
     7
370
    30
100
AcDbCircle
 10
6.283759276389186
 20
5.520964034299449
 30
0.0
 40
0.0625
100
AcDbArc
 50
135.0000000000011
 51
180.0000000000024
  0
LINE
  5
2BC
330
1F
100
AcDbEntity
  8
0
  6
Continuous
 62
     7
370
    30
100
AcDbLine
 10
5.846259210917943
 20
5.484352381947762
 30
0.0
 11
5.190009285306417
 21
5.484352381947759
 31
0.0
  0
LINE
  5
2BD
330
1F
100
AcDbEntity
  8
0
  6
Continuous
 62
     7
370
    30
100
AcDbLine
 10
5.190009285306415
 20
5.593727381771762
 30
0.0
 11
5.190009285306417
 21
5.484352381947759
 31
0.0
  0
ARC
  5
2BE
330
1F
100
AcDbEntity
  8
0
  6
Continuous
 62
     7
370
    30
100
AcDbCircle
 10
5.205634276389186
 20
5.593727381947759
 30
0.0
 40
0.015625
100
AcDbArc
 50
90.0
 51
180.0
  0
LINE
  5
2BF
330
1F
100
AcDbEntity
  8
0
  6
Continuous
 62
     7
370
    30
100
AcDbLine
 10
6.200799928566651
 20
5.609352380437114
 30
0.0
 11
5.205634311471446
 21
5.609352380437111
 31
0.0
  0
ARC
  5
2C0
330
1F
100
AcDbEntity
  8
0
  6
Continuous
 62
     7
370
    30
100
AcDbCircle
 10
6.200799884564834
 20
5.671852381947763
 30
0.0
 40
0.0624999999999998
100
AcDbArc
 50
270.0000000000008
 51
330.0000000000007
  0
LINE
  5
2C1
330
1F
100
AcDbEntity
  8
0
  6
Continuous
 62
     7
370
    30
100
AcDbLine
 10
6.376711363089413
 20
5.851539873499862
 30
0.0
 11
6.254926489958661
 21
5.640602386934372
 31
0.0
  0
ARC
  5
2C2
330
1F
100
AcDbEntity
  8
0
  6
Continuous
 62
     7
370
    30
100
AcDbCircle
 10
6.39024294164268
 20
5.843727381947764
 30
0.0
 40
0.0156250000000009
100
AcDbArc
 50
90.0
 51
150.0000000000011
  0
LINE
  5
2C3
330
1F
100
AcDbEntity
  8
0
  6
Continuous
 62
     7
370
    30
100
AcDbLine
 10
5.846259210917945
 20
4.921852393328964
 30
0.0
 11
5.846259210917943
 21
5.484352381947762
 31
0.0
  0
LINE
  5
2C4
330
1F
100
AcDbEntity
  8
0
  6
Continuous
 62
     7
370
    30
100
AcDbLine
 10
6.221259252218799
 20
5.520964033590172
 30
0.0
 11
6.221259252218801
 21
4.921852393328965
 31
0.0
  0
LINE
  5
2C5
330
1F
100
AcDbEntity
  8
0
  6
Continuous
 62
     7
370
    30
100
AcDbLine
 10
6.390242966771173
 20
5.859352386582378
 30
0.0
 11
6.455634278031832
 21
5.859352386582378
 31
0.0
  0
LINE
  5
2C6
330
1F
100
AcDbEntity
  8
0
  6
Continuous
 62
     7
370
    30
100
AcDbLine
 10
2.723009264301177
 20
5.213602389674766
 30
0.0
 11
2.594509335409988
 21
5.213602389674765
 31
0.0
  0
LINE
  5
2C7
330
1F
100
AcDbEntity
  8
0
  6
Continuous
 62
     7
370
    30
100
AcDbLine
 10
5.190009285306417
 20
5.484352381947759
 30
0.0
 11
4.904127281173057
 21
5.484352381947757
 31
0.0
  0
ARC
  5
2C8
330
1F
100
AcDbEntity
  8
0
  6
Continuous
 62
     7
370
    30
100
AcDbCircle
 10
4.876102711233145
 20
5.467054232141332
 30
0.0
 40
0.0329333039193239
100
AcDbArc
 50
31.68493547186598
 51
91.42284034353734
  0
LINE
  5
2C9
330
1F
100
AcDbEntity
  8
0
  6
Continuous
 62
     7
370
    30
100
AcDbLine
 10
3.252509267471956
 20
5.499977381758922
 30
0.0
 11
4.875284954362077
 21
5.499977381758925
 31
0.0
  0
LINE
  5
2CA
330
1F
100
AcDbEntity
  8
0
  6
Continuous
 62
     7
370
    30
100
AcDbLine
 10
5.190009285306415
 20
5.593727381771762
 30
0.0
 11
3.252509267471956
 21
5.593727381771755
 31
0.0
  0
LWPOLYLINE
  5
2CB
330
1F
100
AcDbEntity
  8
0
  6
Continuous
 62
     7
370
    30
100
AcDbPolyline
 90
       10
 70
   128
 43
0.0
 10
4.875284954362077
 20
5.499977381758925
 10
4.875124722879752
 20
5.497264129040151
 10
4.874648795044378
 20
5.494633316931517
 10
4.87387169068822
 20
5.49216488185334
 10
4.872817022871832
 20
5.48993382575169
 10
4.871516764559195
 20
5.488007937635131
 10
4.870010588625333
 20
5.486445734965684
 10
4.868344034544175
 20
5.485294684773131
 10
4.866567921728649
 20
5.484589760798959
 10
4.864736149556105
 20
5.484352381947756
  0
LINE
  5
2CC
330
1F
100
AcDbEntity
  8
0
  6
Continuous
 62
     7
370
    30
100
AcDbLine
 10
4.096259277899836
 20
5.484352381947753
 30
0.0
 11
4.096259277899836
 21
5.468727382136584
 31
0.0
  0
LINE
  5
2CD
330
1F
100
AcDbEntity
  8
0
  6
Continuous
 62
     7
370
    30
100
AcDbLine
 10
3.393134282959777
 20
5.484352381947753
 30
0.0
 11
4.096259277899836
 21
5.484352381947753
 31
0.0
  0
LINE
  5
2CE
330
1F
100
AcDbEntity
  8
0
  6
Continuous
 62
     7
370
    30
100
AcDbLine
 10
3.236884241306924
 20
5.609352380437104
 30
0.0
 11
5.205634311471446
 21
5.609352380437111
 31
0.0
  0
LINE
  5
2CF
330
1F
100
AcDbEntity
  8
0
  6
Continuous
 62
     7
370
    30
100
AcDbLine
 10
2.052275586007196
 20
5.859352386582362
 30
0.0
 11
2.209543702565826
 21
5.85935238658236
 31
0.0
  0
LINE
  5
2D0
330
1F
100
AcDbEntity
  8
0
  6
Continuous
 62
     7
370
    30
100
AcDbLine
 10
3.248649192063875
 20
5.859352386582359
 30
0.0
 11
3.27294167810167
 21
5.859352386582359
 31
0.0
  0
LINE
  5
2D1
330
1F
100
AcDbEntity
  8
0
  6
Continuous
 62
     7
370
    30
100
AcDbLine
 10
6.232063474074171
 20
5.859352386582373
 30
0.0
 11
6.390242966771173
 21
5.859352386582378
 31
0.0
  0
LINE
  5
2D2
330
1F
100
AcDbEntity
  8
0
  6
Continuous
 62
     7
370
    30
100
AcDbLine
 10
5.721259294927642
 20
4.453102415035377
 30
0.0
 11
5.721259294927644
 21
3.859352447419005
 31
0.0
  0
ARC
  5
2D3
330
1F
100
AcDbEntity
  8
0
  6
Continuous
 62
     7
370
    30
100
AcDbCircle
 10
4.881226182474803
 20
5.484524633637899
 30
0.0
 40
0.0225372211777372
100
AcDbArc
 50
315.4974892675306
 51
359.5620848342366
  0
LWPOLYLINE
  5
2D4
330
1F
100
AcDbEntity
  8
0
  6
Continuous
 62
     7
370
    30
100
AcDbPolyline
 90
       11
 70
   128
 43
0.0
 10
4.897300173373722
 20
5.468727382136588
 10
4.897043143009626
 20
5.470732869802357
 10
4.895679672093891
 20
5.473702761014753
 10
4.895279570049238
 20
5.474263175894959
 10
4.893688915091286
 20
5.47602299514871
 10
4.891883029286367
 20
5.477512417474025
 10
4.888334250282164
 20
5.47965415546686
 10
4.884548607347568
 20
5.48126160814743
 10
4.8784581977045
 20
5.482984565222849
 10
4.872208363236454
 20
5.483965381568157
 10
4.864736149556105
 20
5.484352381947756
  0
LINE
  5
2D5
330
1F
100
AcDbEntity
  8
0
  6
Continuous
 62
     7
370
    30
100
AcDbLine
 10
4.904127281173057
 20
5.484352381947757
 30
0.0
 11
4.903762745384206
 21
5.484352381947757
 31
0.0
  0
LINE
  5
2D6
330
1F
100
AcDbEntity
  8
0
  6
Continuous
 62
     7
370
    30
100
AcDbLine
 10
4.897300173373722
 20
5.468727382136588
 30
0.0
 11
4.096259277899836
 21
5.468727382136584
 31
0.0
  0
LINE
  5
2D7
330
1F
100
AcDbEntity
  8
0
  6
Continuous
 62
     7
370
    30
100
AcDbLine
 10
5.721259294927639
 20
5.484352381947759
 30
0.0
 11
5.721259294927642
 21
4.453102415035377
 31
0.0
  0
LINE
  5
2D8
330
1F
100
AcDbEntity
  8
0
  6
Continuous
 62
     7
370
    30
100
AcDbLine
 10
4.096259277899836
 20
5.484352381947753
 30
0.0
 11
4.864736149556105
 21
5.484352381947756
 31
0.0
  0
LINE
  5
2D9
330
1F
100
AcDbEntity
  8
0
  6
Continuous
 62
     7
370
    30
100
AcDbLine
 10
5.815009305252856
 20
4.527684780120197
 30
0.0
 11
5.815009305252853
 21
5.484352381947759
 31
0.0
  0
LINE
  5
2DA
330
1F
100
AcDbEntity
  8
0
  6
Continuous
 62
     7
370
    30
100
AcDbLine
 10
5.752509347257701
 20
5.484352381947759
 30
0.0
 11
5.752509347257705
 21
4.527684780120197
 31
0.0
  0
ELLIPSE
  5
2DB
330
1F
100
AcDbEntity
  8
0
  6
Continuous
 62
     7
370
    30
100
AcDbEllipse
 10
5.31013558655351
 20
6.139488878935848
 30
0.0
 11
-0.0000000000000018
 21
0.1639999999999997
 31
0.0
210
0.0
220
0.0
230
1.0
 40
0.7128867653103672
 41
4.981594537430476
 42
5.395091306643533
  0
LWPOLYLINE
  5
2DC
330
1F
100
AcDbEntity
  8
0
  6
Continuous
 62
     7
370
    30
100
AcDbPolyline
 90
       27
 70
   128
 43
0.0
 10
5.219425878816748
 20
6.242955171836928
 10
5.224559006185089
 20
6.253810506435176
 10
5.230515730705833
 20
6.263996682096939
 10
5.236304377168228
 20
6.272072935466038
 10
5.242786382287552
 20
6.279486263159977
 10
5.249041790024548
 20
6.285335702253425
 10
5.25587549774764
 20
6.290524708976242
 10
5.262442348553486
 20
6.294511576252945
 10
5.269421841259124
 20
6.297826277961227
 10
5.277025320089754
 20
6.30048384726076
 10
5.284998467983269
 20
6.302326545973747
 10
5.292743185182302
 20
6.303275981672452
 10
5.300704966540457
 20
6.303463346174668
 10
5.309105202833545
 20
6.302846619965809
 10
5.317593584775032
 20
6.301422503083995
 10
5.325158050723009
 20
6.299495032016972
 10
5.332681963806123
 20
6.296976354446283
 10
5.340298055824378
 20
6.293815430961541
 10
5.347778776073126
 20
6.290106640472473
 10
5.355592352476691
 20
6.285573226176194
 10
5.363168111627542
 20
6.280505438053048
 10
5.370614805602698
 20
6.274833390243696
 10
5.377751816488673
 20
6.268698101119079
 10
5.38394445161749
 20
6.26275919639248
 10
5.389846616768507
 20
6.256499902033715
 10
5.395508104699849
 20
6.249866758660354
 10
5.400845316377258
 20
6.242955171836928
  0
ELLIPSE
  5
2DD
330
1F
100
AcDbEntity
  8
0
  6
Continuous
 62
     7
370
    30
100
AcDbEllipse
 10
5.31013558655351
 20
6.139488878935848
 30
0.0
 11
-0.0000000000000018
 21
0.1639999999999997
 31
0.0
210
0.0
220
0.0
230
1.0
 40
0.7128867653103672
 41
0.8880940005360409
 42
2.253498653053723
  0
LWPOLYLINE
  5
2DE
330
1F
100
AcDbEntity
  8
0
  6
Continuous
 62
     7
370
    30
100
AcDbPolyline
 90
       27
 70
   128
 43
0.0
 10
5.400845316377258
 20
6.036022592339745
 10
5.392210562793335
 20
6.025167221075253
 10
5.382705352598335
 20
6.014981045413491
 10
5.373930093970871
 20
6.006904828710635
 10
5.364577195349688
 20
5.999491464350453
 10
5.355971994757699
 20
5.993642061923249
 10
5.346993238481058
 20
5.98845305520043
 10
5.338740767147644
 20
5.984466151257485
 10
5.330335324248038
 20
5.981151449549202
 10
5.32157304547063
 20
5.978493916915913
 10
5.31278810695499
 20
5.976651218202925
 10
5.30462275461517
 20
5.975701782504221
 10
5.29657752088773
 20
5.975514418002005
 10
5.28845125476305
 20
5.976131180877107
 10
5.280591992220588
 20
5.977555261092678
 10
5.273873049838384
 20
5.979482768825944
 10
5.267442890786797
 20
5.982001409730389
 10
5.261181763115877
 20
5.985162296548889
 10
5.255264931467621
 20
5.988871123704201
 10
5.249324486758812
 20
5.993404538000478
 10
5.243791330678304
 20
5.998472326123624
 10
5.238564851055042
 20
6.004144410599221
 10
5.233748886689474
 20
6.01027962639135
 10
5.229720879888018
 20
6.01621853111795
 10
5.226010329419281
 20
6.022477825476714
 10
5.222567662522596
 20
6.029110968850075
 10
5.21942587881675
 20
6.036022592339745
  0
ELLIPSE
  5
2DF
330
1F
100
AcDbEntity
  8
0
  6
Continuous
 62
     7
370
    30
100
AcDbEllipse
 10
5.31013558655351
 20
6.139488878935848
 30
0.0
 11
-0.0000000000000018
 21
0.1639999999999997
 31
0.0
210
0.0
220
0.0
230
1.0
 40
0.7128867653103672
 41
4.029686654125865
 42
4.443183423338926
  0
ARC
  5
2E0
330
1F
100
AcDbEntity
  8
0
  6
Continuous
 62
     7
370
    30
100
AcDbCircle
 10
5.289559396338019
 20
6.110651179323843
 30
0.0
 40
0.1355308524931841
100
AcDbArc
 50
213.4108691279001
 51
265.3694264209178
  0
ELLIPSE
  5
2E1
330
1F
100
AcDbEntity
  8
0
  6
Continuous
 62
     7
370
    30
100
AcDbEllipse
 10
5.26713558655351
 20
6.13948887893585
 30
0.0
 11
-0.0000000000000009
 21
0.1639999999999988
 31
0.0
210
0.0
220
0.0
230
1.0
 40
0.7128867653103765
 41
0.8880940005360484
 42
2.253498653053751
  0
ARC
  5
2E2
330
1F
100
AcDbEntity
  8
0
  6
Continuous
 62
     7
370
    30
100
AcDbCircle
 10
5.288092623934335
 20
6.17080530588601
 30
0.0
 40
0.1329475776599991
100
AcDbArc
 50
94.08563963337838
 51
147.1327731152755
  0
LINE
  5
2E3
330
1F
100
AcDbEntity
  8
0
  6
Continuous
 62
     7
370
    30
100
AcDbLine
 10
5.21942587881675
 20
6.036022592339745
 30
0.0
 11
5.219425878816748
 21
6.242955171836928
 31
0.0
  0
LINE
  5
2E4
330
1F
100
AcDbEntity
  8
0
  6
Continuous
 62
     7
370
    30
100
AcDbLine
 10
5.400845316377258
 20
6.242955171836928
 30
0.0
 11
5.400845316377258
 21
6.036022592339745
 31
0.0
  0
LINE
  5
2E5
330
1F
100
AcDbEntity
  8
0
  6
Continuous
 62
     7
370
    30
100
AcDbLine
 10
5.422838095648129
 20
6.095870517638071
 30
0.0
 11
5.427048993670143
 21
6.095870517638071
 31
0.0
  0
ARC
  5
2E6
330
1F
100
AcDbEntity
  8
0
  6
Continuous
 62
     7
370
    30
100
AcDbCircle
 10
5.346485657749994
 20
6.134452762792908
 30
0.0
 40
0.0893254764094255
100
AcDbArc
 50
334.4099714360094
 51
354.1184812344285
  0
ARC
  5
2E7
330
1F
100
AcDbEntity
  8
0
  6
Continuous
 62
     7
370
    30
100
AcDbCircle
 10
5.403656918799121
 20
6.139488863755215
 30
0.0
 40
0.0347162181058153
100
AcDbArc
 50
335.8751494774001
 51
24.12485052259941
  0
ARC
  5
2E8
330
1F
100
AcDbEntity
  8
0
  6
Continuous
 62
     7
370
    30
100
AcDbCircle
 10
5.346485955697406
 20
6.144525144808397
 30
0.0
 40
0.0893251615763403
100
AcDbArc
 50
5.881423441674053
 51
25.59004935005575
  0
LINE
  5
2E9
330
1F
100
AcDbEntity
  8
0
  6
Continuous
 62
     7
370
    30
100
AcDbLine
 10
5.422838095648129
 20
6.183107283204845
 30
0.0
 11
5.427048993670143
 21
6.183107283204845
 31
0.0
  0
LWPOLYLINE
  5
2EA
330
1F
100
AcDbEntity
  8
0
  6
Continuous
 62
     7
370
    30
100
AcDbPolyline
 90
       40
 70
   128
 43
0.0
 10
5.814746041627428
 20
6.078238894653419
 10
5.816619099989698
 20
6.078353549995577
 10
5.819104337946684
 20
6.078862330784765
 10
5.82156068290411
 20
6.079774550246728
 10
5.823971708385071
 20
6.081084158451355
 10
5.826321281242606
 20
6.082782465499034
 10
5.828593854989639
 20
6.084858104854404
 10
5.830774176469047
 20
6.087297326676306
 10
5.832847872513533
 20
6.090083887819047
 10
5.834801156615695
 20
6.093199235163623
 10
5.836620975592991
 20
6.096622615616439
 10
5.838295156252713
 20
6.100331259440536
 10
5.839812698721932
 20
6.104300453588066
 10
5.841163336452583
 20
6.108503871696489
 10
5.842338122881351
 20
6.112913500756077
 10
5.84332943142967
 20
6.11749993443987
 10
5.844130515508812
 20
6.1222327397661
 10
5.844735948514798
 20
6.127080383765703
 10
5.845141917158347
 20
6.132010600144756
 10
5.845345488140011
 20
6.136990609281932
 10
5.845345488140011
 20
6.141987191560986
 10
5.845141917158347
 20
6.146967127365677
 10
5.844735948514798
 20
6.15189734374473
 10
5.844130515508812
 20
6.156744987744333
 10
5.84332943142967
 20
6.161477793070561
 10
5.842338122881351
 20
6.166064226754355
 10
5.841163336452583
 20
6.170473855813944
 10
5.839812698721932
 20
6.174677273922366
 10
5.838295156252713
 20
6.178646541402383
 10
5.836620975592991
 20
6.182355185226479
 10
5.834801156615695
 20
6.185778565679296
 10
5.832847872513533
 20
6.188893876357628
 10
5.830774176469047
 20
6.19168043750037
 10
5.828593854989639
 20
6.194119622656027
 10
5.826321281242606
 20
6.196195298677641
 10
5.823971708385071
 20
6.19789360572532
 10
5.82156068290411
 20
6.199203177263704
 10
5.819104337946684
 20
6.20011543339191
 10
5.816619099989698
 20
6.200624214181098
 10
5.814746041627428
 20
6.200738906189499
  0
LINE
  5
2EB
330
1F
100
AcDbEntity
  8
0
  6
Continuous
 62
     7
370
    30
100
AcDbLine
 10
5.435340917881126
 20
6.153678296504343
 30
0.0
 11
5.435340917881126
 21
6.125299431006086
 31
0.0
  0
LINE
  5
2EC
330
1F
100
AcDbEntity
  8
0
  6
Continuous
 62
     7
370
    30
100
AcDbLine
 10
5.427048993670143
 20
6.183107283204845
 30
0.0
 11
5.427048993670143
 21
6.095870517638071
 31
0.0
  0
ELLIPSE
  5
2ED
330
1F
100
AcDbEntity
  8
0
  6
Continuous
 62
     7
370
    30
100
AcDbEllipse
 10
3.132382966224865
 20
6.139488878935842
 30
0.0
 11
0.0
 21
0.1639999999999997
 31
0.0
210
0.0
220
0.0
230
1.0
 40
0.7128867653103618
 41
0.8880940005360681
 42
1.301590769749128
  0
ARC
  5
2EE
330
1F
100
AcDbEntity
  8
0
  6
Continuous
 62
     7
370
    30
100
AcDbCircle
 10
3.15442592884404
 20
6.170805305886014
 30
0.0
 40
0.1329475776599861
100
AcDbArc
 50
32.86722688472217
 51
85.91436036662468
  0
ELLIPSE
  5
2EF
330
1F
100
AcDbEntity
  8
0
  6
Continuous
 62
     7
370
    30
100
AcDbEllipse
 10
3.175382966224866
 20
6.139488878935841
 30
0.0
 11
0.0
 21
0.1639999999999997
 31
0.0
210
0.0
220
0.0
230
1.0
 40
0.7128867653103618
 41
4.02968665412587
 42
5.395091306643555
  0
ARC
  5
2F0
330
1F
100
AcDbEntity
  8
0
  6
Continuous
 62
     7
370
    30
100
AcDbCircle
 10
3.152959156440349
 20
6.110651179323832
 30
0.0
 40
0.13553085249318
100
AcDbArc
 50
274.6305735790838
 51
326.5891308721031
  0
ELLIPSE
  5
2F1
330
1F
100
AcDbEntity
  8
0
  6
Continuous
 62
     7
370
    30
100
AcDbEllipse
 10
3.132382966224865
 20
6.139488878935842
 30
0.0
 11
0.0
 21
0.1639999999999997
 31
0.0
210
0.0
220
0.0
230
1.0
 40
0.7128867653103618
 41
1.840001883840674
 42
2.253498653053738
  0
LWPOLYLINE
  5
2F2
330
1F
100
AcDbEntity
  8
0
  6
Continuous
 62
     7
370
    30
100
AcDbPolyline
 90
       27
 70
   128
 43
0.0
 10
3.041673236401109
 20
6.036022592339737
 10
3.050307989985032
 20
6.025167221075245
 10
3.059813200180033
 20
6.014981045413483
 10
3.068588458807496
 20
6.006904828710627
 10
3.07794135742868
 20
5.999491464350445
 10
3.086546558020669
 20
5.993642061923241
 10
3.09552531429731
 20
5.988453055200423
 10
3.103777785630724
 20
5.984466151257477
 10
3.11218322853033
 20
5.981151449549194
 10
3.120945507307738
 20
5.978493916915905
 10
3.129730445823379
 20
5.976651218202918
 10
3.137895798163198
 20
5.975701782504213
 10
3.145941031890638
 20
5.975514418001997
 10
3.154067298015319
 20
5.9761311808771
 10
3.16192656055778
 20
5.97755526109267
 10
3.168645502939984
 20
5.979482768825937
 10
3.175075661991572
 20
5.982001409730383
 10
3.181336789662491
 20
5.985162296548882
 10
3.187253621310746
 20
5.988871123704194
 10
3.193194066019556
 20
5.993404538000472
 10
3.198727222100064
 20
5.998472326123618
 10
3.203953701723326
 20
6.004144410599214
 10
3.208769666088895
 20
6.010279626391344
 10
3.21279767289035
 20
6.016218531117943
 10
3.216508223359087
 20
6.022477825476707
 10
3.219950890255772
 20
6.029110968850069
 10
3.223092673961619
 20
6.036022592339739
  0
ELLIPSE
  5
2F3
330
1F
100
AcDbEntity
  8
0
  6
Continuous
 62
     7
370
    30
100
AcDbEllipse
 10
3.132382966224865
 20
6.139488878935842
 30
0.0
 11
0.0
 21
0.1639999999999997
 31
0.0
210
0.0
220
0.0
230
1.0
 40
0.7128867653103618
 41
4.029686654125866
 42
5.395091306643551
  0
LWPOLYLINE
  5
2F4
330
1F
100
AcDbEntity
  8
0
  6
Continuous
 62
     7
370
    30
100
AcDbPolyline
 90
       27
 70
   128
 43
0.0
 10
3.223092673961618
 20
6.242955171836921
 10
3.217959546593276
 20
6.25381050643517
 10
3.212002822072533
 20
6.263996682096933
 10
3.206214175610138
 20
6.272072935466032
 10
3.199732170490814
 20
6.279486263159971
 10
3.193476762753818
 20
6.285335702253417
 10
3.186643055030726
 20
6.290524708976236
 10
3.18007620422488
 20
6.294511576252938
 10
3.173096711519242
 20
6.297826277961221
 10
3.165493232688612
 20
6.300483847260754
 10
3.157520084795097
 20
6.302326545973741
 10
3.149775367596064
 20
6.303275981672446
 10
3.141813586237908
 20
6.303463346174661
 10
3.133413349944822
 20
6.302846619965801
 10
3.124924968003334
 20
6.301422503083988
 10
3.117360502055357
 20
6.299495032016964
 10
3.109836588972243
 20
6.296976354446276
 10
3.102220496953988
 20
6.293815430961534
 10
3.09473977670524
 20
6.290106640472465
 10
3.086926200301674
 20
6.285573226176187
 10
3.079350441150824
 20
6.280505438053041
 10
3.071903747175668
 20
6.274833390243688
 10
3.064766736289694
 20
6.268698101119071
 10
3.058574101160876
 20
6.262759196392472
 10
3.052671936009859
 20
6.256499902033708
 10
3.047010448078517
 20
6.249866758660346
 10
3.041673236401109
 20
6.24295517183692
  0
LINE
  5
2F5
330
1F
100
AcDbEntity
  8
0
  6
Continuous
 62
     7
370
    30
100
AcDbLine
 10
3.223092673961619
 20
6.036022592339739
 30
0.0
 11
3.223092673961618
 21
6.242955171836921
 31
0.0
  0
LINE
  5
2F6
330
1F
100
AcDbEntity
  8
0
  6
Continuous
 62
     7
370
    30
100
AcDbLine
 10
3.041673236401109
 20
6.24295517183692
 30
0.0
 11
3.041673236401109
 21
6.036022592339737
 31
0.0
  0
ARC
  5
2F7
330
1F
100
AcDbEntity
  8
0
  6
Continuous
 62
     7
370
    30
100
AcDbCircle
 10
3.096032895028389
 20
6.134452762792908
 30
0.0
 40
0.0893254764094413
100
AcDbArc
 50
185.8815187655772
 51
205.5900285639924
  0
LINE
  5
2F8
330
1F
100
AcDbEntity
  8
0
  6
Continuous
 62
     7
370
    30
100
AcDbLine
 10
3.019680457130239
 20
6.095870517638064
 30
0.0
 11
3.015469559108225
 21
6.095870517638064
 31
0.0
  0
LINE
  5
2F9
330
1F
100
AcDbEntity
  8
0
  6
Continuous
 62
     7
370
    30
100
AcDbLine
 10
3.019680457130238
 20
6.183107283204837
 30
0.0
 11
3.015469559108225
 21
6.183107283204836
 31
0.0
  0
ARC
  5
2FA
330
1F
100
AcDbEntity
  8
0
  6
Continuous
 62
     7
370
    30
100
AcDbCircle
 10
3.096032597080968
 20
6.144525144808384
 30
0.0
 40
0.0893251615763479
100
AcDbArc
 50
154.409950649944
 51
174.118576558323
  0
ARC
  5
2FB
330
1F
100
AcDbEntity
  8
0
  6
Continuous
 62
     7
370
    30
100
AcDbCircle
 10
3.038861633979254
 20
6.139488863755207
 30
0.0
 40
0.0347162181058226
100
AcDbArc
 50
155.8751494774046
 51
204.1248505225962
  0
LWPOLYLINE
  5
2FC
330
1F
100
AcDbEntity
  8
0
  6
Continuous
 62
     7
370
    30
100
AcDbPolyline
 90
       21
 70
   128
 43
0.0
 10
2.597147544933164
 20
6.139488900421447
 10
2.597249477088968
 20
6.134496424761619
 10
2.597554393566547
 20
6.12953724205052
 10
2.598060534386231
 20
6.124644205241967
 10
2.598764379588685
 20
6.119850020624797
 10
2.599661382559763
 20
6.115186514498017
 10
2.600745383370627
 20
6.110684706503287
 10
2.602009195437628
 20
6.106374662959945
 10
2.603444458857343
 20
6.102284910205118
 10
2.605041640406565
 20
6.098442764589911
 10
2.606790033542312
 20
6.094873782485763
 10
2.608678198396737
 20
6.091601686951958
 10
2.610693375117244
 20
6.088648294403133
 10
2.612822070526373
 20
6.08603325794559
 10
2.61505049811672
 20
6.083773920712314
 10
2.617363404731159
 20
6.081885352529215
 10
2.619745683877534
 20
6.080380166583918
 10
2.622181349073855
 20
6.079268299428302
 10
2.624654267173161
 20
6.078557230975959
 10
2.627147865033572
 20
6.078251617839761
 10
2.62777251115094
 20
6.078238894653407
  0
LWPOLYLINE
  5
2FD
330
1F
100
AcDbEntity
  8
0
  6
Continuous
 62
     7
370
    30
100
AcDbPolyline
 90
       21
 70
   128
 43
0.0
 10
2.62777251115094
 20
6.200738906189487
 10
2.627147865033572
 20
6.20072614633689
 10
2.62465426717316
 20
6.200420569866936
 10
2.622181349073855
 20
6.199709464748349
 10
2.619745683877533
 20
6.198597597592733
 10
2.617363404731159
 20
6.197092374981194
 10
2.61505049811672
 20
6.195203843464337
 10
2.612822070526372
 20
6.192944542897303
 10
2.610693375117243
 20
6.190329433107275
 10
2.608678198396737
 20
6.187376040558451
 10
2.606790033542312
 20
6.184103945024645
 10
2.605041640406565
 20
6.180534999586741
 10
2.603444458857342
 20
6.176692890637778
 10
2.602009195437628
 20
6.172603137882951
 10
2.600745383370626
 20
6.168293021007123
 10
2.599661382559763
 20
6.163791286344879
 10
2.598764379588684
 20
6.159127706885613
 10
2.598060534386231
 20
6.154333522268443
 10
2.597554393566546
 20
6.149440558792374
 10
2.597249477088968
 20
6.144481302748789
 10
2.597147544933164
 20
6.139488900421447
  0
LINE
  5
2FE
330
1F
100
AcDbEntity
  8
0
  6
Continuous
 62
     7
370
    30
100
AcDbLine
 10
3.007177634897241
 20
6.153678296504336
 30
0.0
 11
3.007177634897241
 21
6.125299431006078
 31
0.0
  0
LINE
  5
2FF
330
1F
100
AcDbEntity
  8
0
  6
Continuous
 62
     7
370
    30
100
AcDbLine
 10
3.015469559108225
 20
6.095870517638064
 30
0.0
 11
3.015469559108225
 21
6.183107283204836
 31
0.0
  0
LINE
  5
300
330
1F
100
AcDbEntity
  8
0
  6
Continuous
 62
     7
370
    30
100
AcDbLine
 10
5.097821770264456
 20
5.853102368783107
 30
0.0
 11
4.811884290105293
 21
5.853102368783106
 31
0.0
  0
LINE
  5
301
330
1F
100
AcDbEntity
  8
0
  6
Continuous
 62
     7
370
    30
100
AcDbLine
 10
5.193134275872925
 20
5.853102368783107
 30
0.0
 11
5.097821770264456
 21
5.853102368783107
 31
0.0
  0
LINE
  5
302
330
1F
100
AcDbEntity
  8
0
  6
Continuous
 62
     7
370
    30
100
AcDbLine
 10
4.949948571841596
 20
5.828102370918548
 30
0.0
 11
4.822296219825792
 21
5.828102370918547
 31
0.0
  0
LINE
  5
303
330
1F
100
AcDbEntity
  8
0
  6
Continuous
 62
     7
370
    30
100
AcDbLine
 10
4.861884249168165
 20
5.995914892333981
 30
0.0
 11
4.861884249168165
 21
5.853102368783106
 31
0.0
  0
ARC
  5
304
330
1F
100
AcDbEntity
  8
0
  6
Continuous
 62
     7
370
    30
100
AcDbCircle
 10
4.932196756912075
 20
5.888155708174727
 30
0.0
 40
0.128669695406128
100
AcDbArc
 50
56.87568609988625
 51
123.1243139001131
  0
LINE
  5
305
330
1F
100
AcDbEntity
  8
0
  6
Continuous
 62
     7
370
    30
100
AcDbLine
 10
5.002509264655986
 20
5.995914892333981
 30
0.0
 11
5.002509264655987
 21
5.853102368783106
 31
0.0
  0
LINE
  5
306
330
1F
100
AcDbEntity
  8
0
  6
Continuous
 62
     7
370
    30
100
AcDbLine
 10
5.143134280143807
 20
5.995914892333982
 30
0.0
 11
5.143134280143807
 21
6.017564292238266
 31
0.0
  0
ARC
  5
307
330
1F
100
AcDbEntity
  8
0
  6
Continuous
 62
     7
370
    30
100
AcDbCircle
 10
5.072821772399898
 20
5.889355728663262
 30
0.0
 40
0.1276663781402166
100
AcDbArc
 50
56.58138425796775
 51
123.4186157420331
  0
LINE
  5
308
330
1F
100
AcDbEntity
  8
0
  6
Continuous
 62
     7
370
    30
100
AcDbLine
 10
4.861884249168165
 20
5.995914892333981
 30
0.0
 11
4.861884249168165
 21
6.017637404726997
 31
0.0
  0
LINE
  5
309
330
1F
100
AcDbEntity
  8
0
  6
Continuous
 62
     7
370
    30
100
AcDbLine
 10
4.885700000713238
 20
6.023414867985248
 30
0.0
 11
4.867629482798736
 21
6.023414867985248
 31
0.0
  0
LINE
  5
30A
330
1F
100
AcDbEntity
  8
0
  6
Continuous
 62
     7
370
    30
100
AcDbLine
 10
5.137389046513237
 20
6.023414867985249
 30
0.0
 11
4.885700000713238
 21
6.023414867985248
 31
0.0
  0
LINE
  5
30B
330
1F
100
AcDbEntity
  8
0
  6
Continuous
 62
     7
370
    30
100
AcDbLine
 10
5.143134280143807
 20
5.995914892333982
 30
0.0
 11
5.143134280143809
 21
5.853102368783107
 31
0.0
  0
LINE
  5
30C
330
1F
100
AcDbEntity
  8
0
  6
Continuous
 62
     7
370
    30
100
AcDbLine
 10
2.849384311072517
 20
5.853102368783103
 30
0.0
 11
2.468134288638643
 21
5.853102368783102
 31
0.0
  0
LINE
  5
30D
330
1F
100
AcDbEntity
  8
0
  6
Continuous
 62
     7
370
    30
100
AcDbLine
 10
2.849384311072518
 20
5.828102370918545
 30
0.0
 11
2.468134288638644
 21
5.828102370918544
 31
0.0
  0
LINE
  5
30E
330
1F
100
AcDbEntity
  8
0
  6
Continuous
 62
     7
370
    30
100
AcDbLine
 10
2.65875929985558
 20
5.995914892333978
 30
0.0
 11
2.65875929985558
 21
5.853102368783103
 31
0.0
  0
ARC
  5
30F
330
1F
100
AcDbEntity
  8
0
  6
Continuous
 62
     7
370
    30
100
AcDbCircle
 10
2.72907180759949
 20
5.888155673085769
 30
0.0
 40
0.1286697247926681
100
AcDbArc
 50
56.87569463821778
 51
123.1243053617822
  0
LINE
  5
310
330
1F
100
AcDbEntity
  8
0
  6
Continuous
 62
     7
370
    30
100
AcDbLine
 10
2.799384315343401
 20
5.995914892333978
 30
0.0
 11
2.799384315343401
 21
5.853102368783103
 31
0.0
  0
ARC
  5
311
330
1F
100
AcDbEntity
  8
0
  6
Continuous
 62
     7
370
    30
100
AcDbCircle
 10
2.588446792111669
 20
5.889355679919717
 30
0.0
 40
0.1276664188249406
100
AcDbArc
 50
56.58139630608157
 51
123.4186036939182
  0
LINE
  5
312
330
1F
100
AcDbEntity
  8
0
  6
Continuous
 62
     7
370
    30
100
AcDbLine
 10
2.518134284367758
 20
5.995914892333978
 30
0.0
 11
2.518134284367758
 21
6.017637404726993
 31
0.0
  0
LINE
  5
313
330
1F
100
AcDbEntity
  8
0
  6
Continuous
 62
     7
370
    30
100
AcDbLine
 10
2.799384315343401
 20
5.995914892333978
 30
0.0
 11
2.799384315343401
 21
6.017564292238263
 31
0.0
  0
LINE
  5
314
330
1F
100
AcDbEntity
  8
0
  6
Continuous
 62
     7
370
    30
100
AcDbLine
 10
2.775568563798328
 20
6.023414867985246
 30
0.0
 11
2.523879444665843
 21
6.023414867985245
 31
0.0
  0
LINE
  5
315
330
1F
100
AcDbEntity
  8
0
  6
Continuous
 62
     7
370
    30
100
AcDbLine
 10
2.793639008380344
 20
6.023414867985246
 30
0.0
 11
2.775568563798328
 21
6.023414867985246
 31
0.0
  0
LINE
  5
316
330
1F
100
AcDbEntity
  8
0
  6
Continuous
 62
     7
370
    30
100
AcDbLine
 10
2.518134284367758
 20
5.995914892333978
 30
0.0
 11
2.518134284367759
 21
5.853102368783103
 31
0.0
  0
LINE
  5
317
330
1F
100
AcDbEntity
  8
0
  6
Continuous
 62
     7
370
    30
100
AcDbLine
 10
2.727509238983752
 20
5.453102382325414
 30
0.0
 11
2.59000921406244
 21
5.453102382325412
 31
0.0
  0
LINE
  5
318
330
1F
100
AcDbEntity
  8
0
  6
Continuous
 62
     7
370
    30
100
AcDbLine
 10
2.565009289530368
 20
5.4781023819087
 30
0.0
 11
2.752509310180796
 21
5.478102381908701
 31
0.0
  0
LINE
  5
319
330
1F
100
AcDbEntity
  8
0
  6
Continuous
 62
     7
370
    30
100
AcDbLine
 10
2.632508176444129
 20
6.559728412445415
 30
0.0
 11
2.643134347023032
 21
6.559728412445414
 31
0.0
  0
LINE
  5
31A
330
1F
100
AcDbEntity
  8
0
  6
Continuous
 62
     7
370
    30
100
AcDbLine
 10
5.799384205755331
 20
6.559728412445425
 30
0.0
 11
5.810010376334235
 21
6.559728412445426
 31
0.0
  0
LINE
  5
31B
330
1F
100
AcDbEntity
  8
0
  6
Continuous
 62
     7
370
    30
100
AcDbLine
 10
5.813457296515119
 20
6.625499365987091
 30
0.0
 11
5.799384205755331
 21
6.62549936598709
 31
0.0
  0
LINE
  5
31C
330
1F
100
AcDbEntity
  8
0
  6
Continuous
 62
     7
370
    30
100
AcDbLine
 10
2.643134347023032
 20
6.625499365987079
 30
0.0
 11
2.629061256263244
 21
6.625499365987081
 31
0.0
  0
LINE
  5
31D
330
1F
100
AcDbEntity
  8
0
  6
Continuous
 62
     7
370
    30
100
AcDbLine
 10
2.980387077717379
 20
5.748341888985101
 30
0.0
 11
4.625189056824559
 21
5.748341888985105
 31
0.0
  0
LINE
  5
31E
330
1F
100
AcDbEntity
  8
0
  6
Continuous
 62
     7
370
    30
100
AcDbLine
 10
2.187592062819709
 20
5.640602386934358
 30
0.0
 11
2.233423840033775
 21
5.640602386934357
 31
0.0
  0
LINE
  5
31F
330
1F
100
AcDbEntity
  8
0
  6
Continuous
 62
     7
370
    30
100
AcDbLine
 10
6.209094712744596
 20
5.640602386934371
 30
0.0
 11
6.254926489958661
 21
5.640602386934372
 31
0.0
  0
LINE
  5
320
330
1F
100
AcDbEntity
  8
0
  6
Continuous
 62
     7
370
    30
100
AcDbLine
 10
6.376711363089413
 20
5.851539873499862
 30
0.0
 11
6.232403443480149
 21
5.851539873499858
 31
0.0
  0
LINE
  5
321
330
1F
100
AcDbEntity
  8
0
  6
Continuous
 62
     7
370
    30
100
AcDbLine
 10
3.274811729832006
 20
5.851539873499844
 30
0.0
 11
3.246859146075972
 21
5.851539873499843
 31
0.0
  0
LINE
  5
322
330
1F
100
AcDbEntity
  8
0
  6
Continuous
 62
     7
370
    30
100
AcDbLine
 10
2.20913421396294
 20
5.851539873499844
 30
0.0
 11
2.065807189688956
 21
5.851539873499847
 31
0.0
  0
LINE
  5
323
330
1F
100
AcDbEntity
  8
WALL
100
AcDbLine
 10
5.869696776389193
 20
4.359352381947764
 30
0.0
 11
6.150946776389194
 21
4.359352381947764
 31
0.0
  0
LINE
  5
324
330
1F
100
AcDbEntity
  8
WALL
100
AcDbLine
 10
5.869696776389193
 20
4.359352381947764
 30
0.0
 11
5.617276952561399
 21
4.35935238194776
 31
0.0
  0
LINE
  5
325
330
1F
100
AcDbEntity
  8
WALL
100
AcDbLine
 10
6.150946776389194
 20
4.359352381947764
 30
0.0
 11
6.275199177147483
 21
4.359352381947764
 31
0.0
  0
HATCH
  5
326
330
1F
100
AcDbEntity
  8
0
  6
Continuous
 62
     7
370
     0
100
AcDbHatch
 10
0.0
 20
0.0
 30
0.0
210
0.0
220
0.0
230
1.0
  2
ANSI31
 70
     0
 71
     0
 91
        1
 92
        0
 93
       12
 72
     1
 10
2.632508218548322
 20
6.55972838030325
 11
2.629061306640423
 21
6.625499377568434
 72
     2
 10
2.597854133679343
 20
6.623863878935843
 40
0.03125
 50
2.999999999999089
 51
90.0
 73
     1
 72
     1
 10
2.597854133679343
 20
6.655113878935842
 11
1.971259276389181
 21
6.65511387893584
 72
     1
 10
1.971259276389181
 20
6.65511387893584
 11
1.971259276389184
 21
6.530113878935841
 72
     1
 10
1.971259276389184
 20
6.530113878935841
 11
2.533759276389183
 21
6.530113878935842
 72
     2
 10
2.533759276389183
 20
6.467613878935842
 40
0.0625
 50
270.0000000000008
 51
360.0000000000008
 73
     0
 72
     1
 10
2.596259276389183
 20
6.467613878935842
 11
2.596259276389183
 21
6.405113878935841
 72
     2
 10
2.627509276389183
 20
6.405113878935841
 40
0.03125
 50
180.0
 51
270.0000000000008
 73
     1
 72
     1
 10
2.627509276389183
 20
6.373863878935841
 11
2.752509276389183
 21
6.373863878935841
 72
     1
 10
2.752509276389183
 20
6.373863878935841
 11
2.752509276389182
 21
6.530113878935843
 72
     1
 10
2.752509276389182
 20
6.530113878935843
 11
2.663715391509402
 21
6.530113878935843
 72
     2
 10
2.663715391509402
 20
6.561363878935843
 40
0.03125
 50
90.0
 51
176.9999999999993
 73
     0
 97
        0
 75
     0
 76
     1
 52
0.0
 41
0.5
 77
     0
 78
     1
 53
45.0
 43
0.0
 44
0.0
 45
-0.0441941738241592
 46
0.0441941738241592
 79
     0
 98
        1
 10
0.0
 20
0.0
  0
HATCH
  5
327
330
1F
100
AcDbEntity
  8
0
  6
Continuous
 62
     7
370
     0
100
AcDbHatch
 10
0.0
 20
0.0
 30
0.0
210
0.0
220
0.0
230
1.0
  2
ANSI31
 70
     0
 71
     0
 91
        1
 92
        0
 93
       12
 72
     1
 10
5.813457246137942
 20
6.625499377568446
 11
5.810010334230043
 21
6.559728380303263
 72
     2
 10
5.778803161268963
 20
6.561363878935854
 40
0.03125
 50
2.999999999999089
 51
90.0
 73
     0
 72
     1
 10
5.778803161268963
 20
6.530113878935853
 11
5.690009276389182
 21
6.530113878935853
 72
     1
 10
5.690009276389182
 20
6.530113878935853
 11
5.690009276389185
 21
6.373863878935852
 72
     1
 10
5.690009276389185
 20
6.373863878935852
 11
5.815009276389183
 21
6.373863878935853
 72
     2
 10
5.815009276389183
 20
6.405113878935853
 40
0.03125
 50
270.0000000000008
 51
360.0000000000008
 73
     1
 72
     1
 10
5.846259276389183
 20
6.405113878935853
 11
5.846259276389182
 21
6.467613878935854
 72
     2
 10
5.908759276389183
 20
6.467613878935854
 40
0.0625
 50
180.0
 51
270.0000000000008
 73
     0
 72
     1
 10
5.908759276389183
 20
6.530113878935853
 11
6.471259276389182
 21
6.530113878935856
 72
     1
 10
6.471259276389182
 20
6.530113878935856
 11
6.471259276389181
 21
6.655113878935856
 72
     1
 10
6.471259276389181
 20
6.655113878935856
 11
5.844664419099022
 21
6.655113878935854
 72
     2
 10
5.844664419099022
 20
6.623863878935853
 40
0.03125
 50
90.0
 51
176.9999999999993
 73
     1
 97
        0
 75
     0
 76
     1
 52
0.0
 41
0.5
 77
     0
 78
     1
 53
45.0
 43
0.0
 44
0.0
 45
-0.0441941738241592
 46
0.0441941738241592
 79
     0
 98
        1
 10
0.0
 20
0.0
  0
HATCH
  5
328
330
1F
100
AcDbEntity
  8
0
  6
Continuous
 62
     7
370
     0
100
AcDbHatch
 10
0.0
 20
0.0
 30
0.0
210
0.0
220
0.0
230
1.0
  2
ANSI31
 70
     0
 71
     0
 91
        1
 92
        0
 93
        8
 72
     1
 10
2.793407388281011
 20
6.530113878935844
 11
2.793407388281011
 21
6.248863878935844
 72
     1
 10
2.793407388281011
 20
6.248863878935844
 11
2.885321776389184
 21
6.248863878935844
 72
     1
 10
2.885321776389184
 20
6.248863878935844
 11
2.885321776389183
 21
6.436363878935844
 72
     2
 10
2.979071776389183
 20
6.436363878935844
 40
0.09375
 50
180.0
 51
250.5287793655098
 73
     0
 72
     1
 10
2.947821776389183
 20
6.524752226584162
 11
2.947821776389182
 21
6.655113878935843
 72
     1
 10
2.947821776389182
 20
6.655113878935843
 11
2.643134276389182
 21
6.655113878935843
 72
     1
 10
2.643134276389182
 20
6.655113878935843
 11
2.643134276389183
 21
6.530113878935843
 72
     1
 10
2.643134276389183
 20
6.530113878935843
 11
2.793407388281011
 21
6.530113878935844
 97
        0
 75
     0
 76
     1
 52
90.00000000000019
 41
0.3333333333333333
 77
     0
 78
     1
 53
135.0000000000002
 43
0.0
 44
0.0
 45
-0.0294627825494394
 46
-0.0294627825494396
 79
     0
 98
        1
 10
0.0
 20
0.0
  0
HATCH
  5
329
330
1F
100
AcDbEntity
  8
0
  6
Continuous
 62
     7
370
     0
100
AcDbHatch
 10
0.0
 20
0.0
 30
0.0
210
0.0
220
0.0
230
1.0
  2
ANSI31
 70
     0
 71
     0
 91
        1
 92
        0
 93
        8
 72
     1
 10
5.649111164497356
 20
6.248863878935853
 11
5.649111164497355
 21
6.530113878935853
 72
     1
 10
5.649111164497355
 20
6.530113878935853
 11
5.799384276389182
 21
6.530113878935853
 72
     1
 10
5.799384276389182
 20
6.530113878935853
 11
5.799384276389182
 21
6.655113878935854
 72
     1
 10
5.799384276389182
 20
6.655113878935854
 11
5.494696776389182
 21
6.655113878935853
 72
     1
 10
5.494696776389182
 20
6.655113878935853
 11
5.494696776389183
 21
6.524752226584171
 72
     2
 10
5.463446776389183
 20
6.436363878935853
 40
0.09375
 50
289.4712206344916
 51
360.0000000000008
 73
     0
 72
     1
 10
5.557196776389183
 20
6.436363878935853
 11
5.557196776389183
 21
6.248863878935853
 72
     1
 10
5.557196776389183
 20
6.248863878935853
 11
5.649111164497356
 21
6.248863878935853
 97
        0
 75
     0
 76
     1
 52
90.00000000000019
 41
0.3333333333333333
 77
     0
 78
     1
 53
135.0000000000002
 43
0.0
 44
0.0
 45
-0.0294627825494394
 46
-0.0294627825494396
 79
     0
 98
        1
 10
0.0
 20
0.0
  0
HATCH
  5
32A
330
1F
100
AcDbEntity
  8
0
  6
Continuous
 62
     7
370
     0
100
AcDbHatch
 10
0.0
 20
0.0
 30
0.0
210
0.0
220
0.0
230
1.0
  2
ANSI31
 70
     0
 71
     0
 91
        1
 92
        0
 93
        4
 72
     1
 10
3.994696776389182
 20
6.655113878935847
 11
3.994696776389183
 21
6.530113878935847
 72
     1
 10
3.994696776389183
 20
6.530113878935847
 11
4.447821776389183
 21
6.530113878935849
 72
     1
 10
4.447821776389183
 20
6.530113878935849
 11
4.447821776389182
 21
6.655113878935849
 72
     1
 10
4.447821776389182
 20
6.655113878935849
 11
3.994696776389182
 21
6.655113878935847
 97
        0
 75
     0
 76
     1
 52
90.00000000000019
 41
0.3333333333333333
 77
     0
 78
     1
 53
135.0000000000002
 43
0.0
 44
0.0
 45
-0.0294627825494394
 46
-0.0294627825494396
 79
     0
 98
        1
 10
0.0
 20
0.0
  0
HATCH
  5
32B
330
1F
100
AcDbEntity
  8
0
  6
Continuous
 62
     7
370
     0
100
AcDbHatch
 10
0.0
 20
0.0
 30
0.0
210
0.0
220
0.0
230
1.0
  2
ANSI31
 70
     0
 71
     0
 91
        1
 92
        0
 93
        8
 72
     1
 10
2.390862639977494
 20
5.82810238194775
 11
2.354071776389181
 21
6.530113878935842
 72
     1
 10
2.354071776389181
 20
6.530113878935842
 11
2.244696776389182
 21
6.530113878935841
 72
     1
 10
2.244696776389182
 20
6.530113878935841
 11
2.202173811941791
 21
5.718727381947751
 72
     1
 10
2.202173811941791
 20
5.718727381947751
 11
2.155298811941793
 21
5.718727381947749
 72
     1
 10
2.155298811941793
 20
5.718727381947749
 11
2.264673811941791
 21
5.60935238194775
 72
     1
 10
2.264673811941791
 20
5.60935238194775
 11
2.496012048029605
 21
5.609352381947751
 72
     1
 10
2.496012048029605
 20
5.609352381947751
 11
2.496012048029605
 21
5.82810238194775
 72
     1
 10
2.496012048029605
 20
5.82810238194775
 11
2.390862639977494
 21
5.82810238194775
 97
        0
 75
     0
 76
     1
 52
0.0
 41
1.0
 77
     0
 78
     1
 53
45.0
 43
0.0
 44
0.0
 45
-0.0883883476483184
 46
0.0883883476483185
 79
     0
 98
        1
 10
0.0
 20
0.0
  0
HATCH
  5
32C
330
1F
100
AcDbEntity
  8
0
  6
Continuous
 62
     7
370
     0
100
AcDbHatch
 10
0.0
 20
0.0
 30
0.0
210
0.0
220
0.0
230
1.0
  2
ANSI31
 70
     0
 71
     0
 91
        1
 92
        0
 93
        4
 72
     1
 10
6.088446776389185
 20
6.530113878935855
 11
6.055708291768311
 21
5.905426378935855
 72
     1
 10
6.055708291768311
 20
5.905426378935855
 11
6.230560261010062
 21
5.905426378935855
 72
     1
 10
6.230560261010062
 20
5.905426378935855
 11
6.197821776389185
 21
6.530113878935862
 72
     1
 10
6.197821776389185
 20
6.530113878935862
 11
6.088446776389185
 21
6.530113878935855
 97
        0
 75
     0
 76
     1
 52
0.0
 41
1.0
 77
     0
 78
     1
 53
45.0
 43
0.0
 44
0.0
 45
-0.0883883476483184
 46
0.0883883476483185
 79
     0
 98
        1
 10
0.0
 20
0.0
  0
HATCH
  5
32D
330
1F
100
AcDbEntity
  8
0
  6
Continuous
 62
     7
370
     0
100
AcDbHatch
 10
0.0
 20
0.0
 30
0.0
210
0.0
220
0.0
230
1.0
  2
ANSI31
 70
     0
 71
     0
 91
        1
 92
        0
 93
        9
 72
     1
 10
6.287219740836579
 20
5.718727381947763
 11
6.240344740836579
 21
5.718727381947767
 72
     1
 10
6.240344740836579
 20
5.718727381947767
 11
6.23793010497174
 21
5.764801378935855
 72
     1
 10
6.23793010497174
 20
5.764801378935855
 11
6.048338447806633
 21
5.764801378935853
 72
     1
 10
6.048338447806633
 20
5.764801378935853
 11
6.047475842193035
 21
5.748341883315164
 72
     2
 10
6.016268669231955
 20
5.749977381947763
 40
0.03125
 50
3.000000000012099
 51
90.0
 73
     0
 72
     1
 10
6.016268669231955
 20
5.718727381947762
 11
5.999048811941795
 21
5.718727381947762
 72
     1
 10
5.999048811941795
 20
5.718727381947762
 11
5.999048811941795
 21
5.609352381947762
 72
     1
 10
5.999048811941795
 20
5.609352381947762
 11
6.177844740836582
 21
5.609352381947764
 72
     1
 10
6.177844740836582
 20
5.609352381947764
 11
6.287219740836579
 21
5.718727381947763
 97
        0
 75
     0
 76
     1
 52
0.0
 41
1.0
 77
     0
 78
     1
 53
45.0
 43
0.0
 44
0.0
 45
-0.0883883476483184
 46
0.0883883476483185
 79
     0
 98
        1
 10
0.0
 20
0.0
  0
HATCH
  5
32E
330
1F
100
AcDbEntity
  8
0
  6
Continuous
 62
     7
370
     0
100
AcDbHatch
 10
0.0
 20
0.0
 30
0.0
210
0.0
220
0.0
230
1.0
  2
ANSI31
 70
     0
 71
     0
 91
        1
 92
        0
 93
       64
 72
     1
 10
1.922290923323317
 20
5.835914881947749
 11
2.107223431423123
 21
5.51560238194775
 72
     2
 10
2.16135001915965
 20
5.54685238194775
 40
0.0625
 50
210.0000000000009
 51
270.0000000000008
 73
     1
 72
     1
 10
2.16135001915965
 20
5.484352381947749
 11
2.503316874172884
 21
5.484352381947751
 72
     2
 10
2.503316874172884
 20
5.453102381947751
 40
0.03125
 50
270.0000000000008
 51
358.4999999999997
 73
     0
 72
     1
 10
2.53455616557837
 20
5.453920411582372
 11
2.542782107788449
 21
5.139784352313129
 72
     2
 10
2.574021399193935
 20
5.140602381947751
 40
0.03125
 50
181.5000000000035
 51
270.0000000000017
 73
     1
 72
     1
 10
2.574021399193935
 20
5.109352381947751
 11
2.74349715358444
 21
5.109352381947751
 72
     2
 10
2.74349715358444
 20
5.140602381947751
 40
0.03125
 50
270.0000000000008
 51
358.4999999999997
 73
     1
 72
     1
 10
2.774736444989926
 20
5.13978435231313
 11
2.782962387200003
 21
5.453920411582373
 72
     2
 10
2.814201678605489
 20
5.453102381947751
 40
0.03125
 50
181.5000000000019
 51
270.0000000000008
 73
     0
 72
     1
 10
2.814201678605489
 20
5.484352381947752
 11
3.033759276389186
 21
5.484352381947752
 72
     2
 10
3.033759276389187
 20
5.421852381947752
 40
0.0625
 50
270.0000000000004
 51
360.0000000000008
 73
     0
 72
     1
 10
3.096259276389186
 20
5.421852381947752
 11
3.096259276389187
 21
5.234352381947752
 72
     2
 10
3.221259276389187
 20
5.234352381947753
 40
0.125
 50
180.0000000000012
 51
270.0000000000012
 73
     1
 72
     2
 10
3.221259276389188
 20
5.046852381947753
 40
0.0625
 50
270.0000000000004
 51
360.0000000000008
 73
     0
 72
     1
 10
3.283759276389188
 20
5.046852381947753
 11
3.28375927638919
 21
4.484352381947753
 72
     2
 10
4.03375927638919
 20
4.484352381947756
 40
0.7500000000000001
 50
180.000000000001
 51
270.000000000001
 73
     1
 72
     1
 10
4.033759276389193
 20
3.734352381947756
 11
5.596259276389192
 21
3.734352381947761
 72
     2
 10
5.596259276389192
 20
3.671852381947762
 40
0.0625
 50
270.0000000000008
 51
360.0000000000008
 73
     0
 72
     1
 10
5.658759276389193
 20
3.671852381947762
 11
5.658759276389193
 21
3.609352381947761
 72
     2
 10
5.721259276389193
 20
3.609352381947762
 40
0.0625
 50
180.0000000000016
 51
270.0000000000017
 73
     1
 72
     1
 10
5.721259276389194
 20
3.546852381947762
 11
6.190009276389193
 21
3.546852381947763
 72
     2
 10
6.190009276389193
 20
3.578102381947764
 40
0.03125
 50
270.0000000000008
 51
360.0000000000008
 73
     1
 72
     1
 10
6.221259276389194
 20
3.578102381947764
 11
6.221259276389194
 21
3.796852381947764
 72
     1
 10
6.221259276389194
 20
3.796852381947764
 11
6.197821776389194
 21
3.773414881947764
 72
     1
 10
6.197821776389194
 20
3.773414881947764
 11
6.174384276389194
 21
3.796852381947764
 72
     1
 10
6.174384276389194
 20
3.796852381947764
 11
6.150946776389194
 21
3.773414881947764
 72
     1
 10
6.150946776389194
 20
3.773414881947764
 11
6.127509276389194
 21
3.796852381947763
 72
     1
 10
6.127509276389194
 20
3.796852381947763
 11
6.104071776389194
 21
3.773414881947764
 72
     1
 10
6.104071776389194
 20
3.773414881947764
 11
6.080634276389194
 21
3.796852381947763
 72
     1
 10
6.080634276389194
 20
3.796852381947763
 11
6.057196776389194
 21
3.773414881947763
 72
     1
 10
6.057196776389194
 20
3.773414881947763
 11
6.033759276389194
 21
3.796852381947763
 72
     1
 10
6.033759276389194
 20
3.796852381947763
 11
6.010321776389194
 21
3.773414881947763
 72
     1
 10
6.010321776389194
 20
3.773414881947763
 11
5.986884276389194
 21
3.796852381947763
 72
     1
 10
5.986884276389194
 20
3.796852381947763
 11
5.963446776389194
 21
3.773414881947763
 72
     1
 10
5.963446776389194
 20
3.773414881947763
 11
5.940009276389194
 21
3.796852381947763
 72
     1
 10
5.940009276389194
 20
3.796852381947763
 11
5.916571776389194
 21
3.773414881947763
 72
     1
 10
5.916571776389194
 20
3.773414881947763
 11
5.893134276389194
 21
3.796852381947763
 72
     1
 10
5.893134276389194
 20
3.796852381947763
 11
5.869696776389193
 21
3.773414881947763
 72
     1
 10
5.869696776389193
 20
3.773414881947763
 11
5.846259276389193
 21
3.796852381947763
 72
     1
 10
5.846259276389193
 20
3.796852381947763
 11
5.846259276389193
 21
3.765602381947762
 72
     2
 10
5.815009276389193
 20
3.765602381947762
 40
0.03125
 50
0.0
 51
90.00000000000081
 73
     0
 72
     1
 10
5.815009276389193
 20
3.734352381947762
 11
5.752509276389193
 21
3.734352381947762
 72
     2
 10
5.752509276389193
 20
3.765602381947762
 40
0.03125
 50
90.0
 51
180.0
 73
     0
 72
     1
 10
5.721259276389193
 20
3.765602381947762
 11
5.721259276389192
 21
3.859352381947762
 72
     1
 10
5.721259276389192
 20
3.859352381947762
 11
4.002509276389193
 21
3.859352381947756
 72
     2
 10
4.00250927638919
 20
4.453102381947756
 40
0.59375
 50
89.99999999999975
 51
179.9999999999998
 73
     0
 72
     1
 10
3.40875927638919
 20
4.453102381947754
 11
3.408759276389186
 21
5.468727381947753
 72
     2
 10
3.393134276389186
 20
5.468727381947753
 40
0.015625
 50
0.0
 51
90.0
 73
     1
 72
     1
 10
3.393134276389186
 20
5.484352381947753
 11
3.268134276389186
 21
5.484352381947753
 72
     2
 10
3.268134276389186
 20
5.499977381947753
 40
0.015625
 50
90.0
 51
180.0
 73
     0
 72
     1
 10
3.252509276389186
 20
5.499977381947753
 11
3.252509276389186
 21
5.593727381947753
 72
     2
 10
3.236884276389186
 20
5.593727381947753
 40
0.015625
 50
0.0
 51
90.0
 73
     1
 72
     1
 10
3.236884276389186
 20
5.609352381947752
 11
2.723009276389185
 21
5.609352381947751
 72
     1
 10
2.723009276389185
 20
5.609352381947751
 11
2.723009276389187
 21
5.213602381947751
 72
     1
 10
2.723009276389187
 20
5.213602381947751
 11
2.658759276389187
 21
5.17499708717523
 72
     1
 10
2.658759276389187
 20
5.17499708717523
 11
2.594509276389187
 21
5.213602381947751
 72
     1
 10
2.594509276389187
 20
5.213602381947751
 11
2.594509276389186
 21
5.609352381947751
 72
     1
 10
2.594509276389186
 20
5.609352381947751
 11
2.241718668213537
 21
5.60935238194775
 72
     2
 10
2.241718668213537
 20
5.671852381947749
 40
0.0625
 50
90.0
 51
150.0000000000001
 73
     0
 72
     1
 10
2.18759208047701
 20
5.640602381947749
 11
2.065807258069821
 21
5.851539881947749
 72
     2
 10
2.052275611135689
 20
5.84372738194775
 40
0.015625
 50
29.99999999999691
 51
90.0
 73
     1
 72
     1
 10
2.052275611135689
 20
5.859352381947749
 11
1.935822570257449
 21
5.859352381947749
 72
     2
 10
1.935822570257449
 20
5.843727381947749
 40
0.015625
 50
89.9999999999992
 51
210.0000000000009
 73
     1
 97
        0
 75
     0
 76
     1
 52
0.0
 41
0.5
 77
     0
 78
     1
 53
45.0
 43
0.0
 44
0.0
 45
-0.0441941738241592
 46
0.0441941738241592
 79
     0
 98
        1
 10
0.0
 20
0.0
  0
HATCH
  5
32F
330
1F
100
AcDbEntity
  8
0
  6
Continuous
 62
     7
370
     0
100
AcDbHatch
 10
0.0
 20
0.0
 30
0.0
210
0.0
220
0.0
230
1.0
  2
ANSI31
 70
     0
 71
     0
 91
        1
 92
        0
 93
       31
 72
     2
 10
6.390242941642681
 20
5.843727381947765
 40
0.015625
 50
90.0
 51
150.0000000000039
 73
     1
 72
     1
 10
6.376711294708549
 20
5.851539881947764
 11
6.254926472301361
 21
5.640602381947763
 72
     2
 10
6.200799884564834
 20
5.671852381947763
 40
0.0625
 50
30.00000000000014
 51
90.0
 73
     0
 72
     1
 10
6.200799884564834
 20
5.609352381947764
 11
5.205634276389186
 21
5.60935238194776
 72
     2
 10
5.205634276389186
 20
5.593727381947759
 40
0.015625
 50
90.0
 51
180.0
 73
     1
 72
     1
 10
5.190009276389186
 20
5.593727381947759
 11
5.190009276389186
 21
5.484352381947759
 72
     1
 10
5.190009276389186
 20
5.484352381947759
 11
5.846259276389186
 21
5.484352381947762
 72
     1
 10
5.846259276389186
 20
5.484352381947762
 11
5.846259276389189
 21
4.921852381947763
 72
     1
 10
5.846259276389189
 20
4.921852381947763
 11
5.869696776389189
 21
4.945289881947763
 72
     1
 10
5.869696776389189
 20
4.945289881947763
 11
5.893134276389189
 21
4.921852381947763
 72
     1
 10
5.893134276389189
 20
4.921852381947763
 11
5.916571776389189
 21
4.945289881947763
 72
     1
 10
5.916571776389189
 20
4.945289881947763
 11
5.940009276389189
 21
4.921852381947763
 72
     1
 10
5.940009276389189
 20
4.921852381947763
 11
5.963446776389189
 21
4.945289881947763
 72
     1
 10
5.963446776389189
 20
4.945289881947763
 11
5.986884276389189
 21
4.921852381947763
 72
     1
 10
5.986884276389189
 20
4.921852381947763
 11
6.010321776389189
 21
4.945289881947763
 72
     1
 10
6.010321776389189
 20
4.945289881947763
 11
6.033759276389189
 21
4.921852381947764
 72
     1
 10
6.033759276389189
 20
4.921852381947764
 11
6.057196776389189
 21
4.945289881947764
 72
     1
 10
6.057196776389189
 20
4.945289881947764
 11
6.080634276389189
 21
4.921852381947764
 72
     1
 10
6.080634276389189
 20
4.921852381947764
 11
6.104071776389189
 21
4.945289881947763
 72
     1
 10
6.104071776389189
 20
4.945289881947763
 11
6.127509276389189
 21
4.921852381947764
 72
     1
 10
6.127509276389189
 20
4.921852381947764
 11
6.150946776389189
 21
4.945289881947764
 72
     1
 10
6.150946776389189
 20
4.945289881947764
 11
6.174384276389189
 21
4.921852381947764
 72
     1
 10
6.174384276389189
 20
4.921852381947764
 11
6.197821776389189
 21
4.945289881947764
 72
     1
 10
6.197821776389189
 20
4.945289881947764
 11
6.221259276389189
 21
4.921852381947764
 72
     1
 10
6.221259276389189
 20
4.921852381947764
 11
6.221259276389186
 21
5.520964034299449
 72
     2
 10
6.283759276389186
 20
5.520964034299449
 40
0.0625
 50
180.0
 51
225.0000000000008
 73
     0
 72
     1
 10
6.239565102565027
 20
5.565158208123609
 11
6.462106363301264
 21
5.787699468859845
 72
     2
 10
6.440009276389185
 20
5.809796555771924
 40
0.03125
 50
315.0000000000008
 51
360.0000000000008
 73
     1
 72
     1
 10
6.471259276389186
 20
5.809796555771924
 11
6.471259276389186
 21
5.843727381947765
 72
     2
 10
6.455634276389185
 20
5.843727381947765
 40
0.015625
 50
0.0
 51
90.0
 73
     1
 72
     1
 10
6.455634276389185
 20
5.859352381947765
 11
6.390242941642681
 21
5.859352381947765
 97
        0
 75
     0
 76
     1
 52
0.0
 41
0.5
 77
     0
 78
     1
 53
45.0
 43
0.0
 44
0.0
 45
-0.0441941738241592
 46
0.0441941738241592
 79
     0
 98
        1
 10
0.0
 20
0.0
  0
ENDSEC
  0
SECTION
  2
OBJECTS
  0
DICTIONARY
  5
C
330
0
100
AcDbDictionary
281
     1
  3
ACAD_COLOR
350
3B1
  3
ACAD_GROUP
350
D
  3
ACAD_LAYOUT
350
1A
  3
ACAD_MATERIAL
350
398
  3
ACAD_MLEADERSTYLE
350
396
  3
ACAD_MLINESTYLE
350
17
  3
ACAD_PLOTSETTINGS
350
19
  3
ACAD_PLOTSTYLENAME
350
E
  3
ACAD_SCALELIST
350
3B
  3
ACAD_TABLESTYLE
350
395
  3
ACAD_VISUALSTYLE
350
2A
  3
ACDB_RECOMPOSE_DATA
350
3C2
  3
AcDbVariableDictionary
350
393
  3
DWGPROPS
350
3C3
  0
DICTIONARY
  5
3B7
330
10
100
AcDbDictionary
280
     1
281
     1
  3
ADSK_XREC_LAYER_RECONCILED
360
3B8
  0
DICTIONARY
  5
3B9
330
62
100
AcDbDictionary
280
     1
281
     1
  3
ADSK_XREC_LAYER_RECONCILED
360
3BA
  0
DICTIONARY
  5
3B1
102
{ACAD_REACTORS
330
C
102
}
330
C
100
AcDbDictionary
281
     1
  0
DICTIONARY
  5
D
102
{ACAD_REACTORS
330
C
102
}
330
C
100
AcDbDictionary
281
     1
  0
DICTIONARY
  5
1A
102
{ACAD_REACTORS
330
C
102
}
330
C
100
AcDbDictionary
281
     1
  3
Layout1
350
1E
  3
Layout2
350
26
  3
Model
350
22
  0
DICTIONARY
  5
398
102
{ACAD_REACTORS
330
C
102
}
330
C
100
AcDbDictionary
281
     1
  3
ByBlock
350
3A1
  3
ByLayer
350
399
  3
Global
350
3A9
  0
DICTIONARY
  5
396
102
{ACAD_REACTORS
330
C
102
}
330
C
100
AcDbDictionary
281
     1
  3
Standard
350
3B3
  0
DICTIONARY
  5
17
102
{ACAD_REACTORS
330
C
102
}
330
C
100
AcDbDictionary
281
     1
  3
Standard
350
18
  0
DICTIONARY
  5
19
102
{ACAD_REACTORS
330
C
102
}
330
C
100
AcDbDictionary
281
     1
  0
ACDBDICTIONARYWDFLT
  5
E
102
{ACAD_REACTORS
330
C
102
}
330
C
100
AcDbDictionary
281
     1
  3
Normal
350
F
100
AcDbDictionaryWithDefault
340
F
  0
DICTIONARY
  5
3B
102
{ACAD_REACTORS
330
C
102
}
330
C
100
AcDbDictionary
281
     1
  3
A0
350
3C
  3
A1
350
3D
  3
A2
350
3E
  3
A3
350
3F
  3
A4
350
40
  3
A5
350
41
  3
A6
350
42
  3
A7
350
43
  3
A8
350
44
  3
A9
350
45
  3
B0
350
46
  3
B1
350
47
  3
B2
350
48
  3
B3
350
49
  3
B4
350
4A
  3
B5
350
4B
  3
B6
350
4C
  3
B7
350
4D
  3
B8
350
4E
  3
B9
350
4F
  3
C0
350
50
  3
C1
350
51
  3
C2
350
52
  3
C3
350
53
  3
C4
350
54
  3
C5
350
55
  3
C6
350
56
  3
C7
350
57
  3
C8
350
58
  3
C9
350
59
  3
D0
350
5A
  3
D1
350
5B
  3
D2
350
5C
  0
DICTIONARY
  5
395
102
{ACAD_REACTORS
330
C
102
}
330
C
100
AcDbDictionary
281
     1
  3
Standard
350
3B2
  0
DICTIONARY
  5
2A
102
{ACAD_REACTORS
330
C
102
}
330
C
100
AcDbDictionary
281
     1
  3
2dWireframe
350
2F
  3
3D Hidden
350
31
  3
3dWireframe
350
30
  3
Basic
350
32
  3
Brighten
350
36
  3
ColorChange
350
3A
  3
Conceptual
350
34
  3
Dim
350
35
  3
Facepattern
350
39
  3
Flat
350
2B
  3
FlatWithEdges
350
2C
  3
Gouraud
350
2D
  3
GouraudWithEdges
350
2E
  3
Linepattern
350
38
  3
Realistic
350
33
  3
Thicken
350
37
  0
XRECORD
  5
3C2
102
{ACAD_REACTORS
330
C
102
}
330
C
100
AcDbXrecord
280
     1
 90
        1
330
3B2
  0
DICTIONARY
  5
393
102
{ACAD_REACTORS
330
C
102
}
330
C
100
AcDbDictionary
281
     1
  3
CANNOSCALE
350
394
  3
CMLEADERSTYLE
350
3BC
  3
CTABLESTYLE
350
3BB
  3
DIMASSOC
350
3BF
  3
INDEXCTL
350
3BE
  3
SORTENTS
350
3BD
  0
XRECORD
  5
3C3
102
{ACAD_REACTORS
330
C
102
}
330
C
100
AcDbXrecord
280
     1
  1
DWGPROPS COOKIE
  2

  3

  4

  6

  7

  8
Jason Jacobs
  9

300
=
301
=
302
=
303
=
304
=
305
=
306
=
307
=
308
=
309
=
 40
0.0008671643518519
 41
2455397.666050163
 42
2455397.667237766
  1

 90
        0
  0
XRECORD
  5
3B8
102
{ACAD_REACTORS
330
3B7
102
}
330
3B7
100
AcDbXrecord
280
     1
290
     1
  0
XRECORD
  5
3BA
102
{ACAD_REACTORS
330
3B9
102
}
330
3B9
100
AcDbXrecord
280
     1
290
     1
  0
LAYOUT
  5
1E
102
{ACAD_XDICTIONARY
360
3C4
102
}
102
{ACAD_REACTORS
330
1A
102
}
330
1A
100
AcDbPlotSettings
  1

  2
none_device
  4

  6

 40
0.0
 41
0.0
 42
0.0
 43
0.0
 44
0.0
 45
0.0
 46
0.0
 47
0.0
 48
0.0
 49
0.0
140
0.0
141
0.0
142
1.0
143
1.0
 70
   688
 72
     0
 73
     0
 74
     5
  7

 75
    16
147
1.0
148
0.0
149
0.0
100
AcDbLayout
  1
Layout1
 70
     1
 71
     1
 10
0.0
 20
0.0
 11
12.0
 21
9.0
 12
0.0
 22
0.0
 32
0.0
 14
1.000000000000000E+20
 24
1.000000000000000E+20
 34
1.000000000000000E+20
 15
-1.000000000000000E+20
 25
-1.000000000000000E+20
 35
-1.000000000000000E+20
146
0.0
 13
0.0
 23
0.0
 33
0.0
 16
1.0
 26
0.0
 36
0.0
 17
0.0
 27
1.0
 37
0.0
 76
     0
330
1B
  0
LAYOUT
  5
26
102
{ACAD_XDICTIONARY
360
3C8
102
}
102
{ACAD_REACTORS
330
1A
102
}
330
1A
100
AcDbPlotSettings
  1

  2
none_device
  4

  6

 40
0.0
 41
0.0
 42
0.0
 43
0.0
 44
0.0
 45
0.0
 46
0.0
 47
0.0
 48
0.0
 49
0.0
140
0.0
141
0.0
142
1.0
143
1.0
 70
   688
 72
     0
 73
     0
 74
     5
  7

 75
    16
147
1.0
148
0.0
149
0.0
100
AcDbLayout
  1
Layout2
 70
     1
 71
     2
 10
0.0
 20
0.0
 11
0.0
 21
0.0
 12
0.0
 22
0.0
 32
0.0
 14
0.0
 24
0.0
 34
0.0
 15
0.0
 25
0.0
 35
0.0
146
0.0
 13
0.0
 23
0.0
 33
0.0
 16
1.0
 26
0.0
 36
0.0
 17
0.0
 27
1.0
 37
0.0
 76
     0
330
23
  0
LAYOUT
  5
22
102
{ACAD_XDICTIONARY
360
3C6
102
}
102
{ACAD_REACTORS
330
1A
102
}
330
1A
100
AcDbPlotSettings
  1

  2
none_device
  4

  6

 40
0.0
 41
0.0
 42
0.0
 43
0.0
 44
0.0
 45
0.0
 46
0.0
 47
0.0
 48
0.0
 49
0.0
140
0.0
141
0.0
142
1.0
143
1.0
 70
  1712
 72
     0
 73
     0
 74
     0
  7

 75
     0
147
1.0
148
0.0
149
0.0
100
AcDbLayout
  1
Model
 70
     1
 71
     0
 10
0.0
 20
0.0
 11
8.5
 21
11.0
 12
0.0
 22
0.0
 32
0.0
 14
0.0
 24
0.0
 34
0.0
 15
8.5
 25
11.0
 35
0.0
146
0.0
 13
0.0
 23
0.0
 33
0.0
 16
1.0
 26
0.0
 36
0.0
 17
0.0
 27
1.0
 37
0.0
 76
     0
330
1F
331
29
  0
MATERIAL
  5
3A1
102
{ACAD_XDICTIONARY
360
3A2
102
}
102
{ACAD_REACTORS
330
398
102
}
330
398
100
AcDbMaterial
  1
ByBlock
 72
     0
 43
0.0208333333333333
 43
0.0
 43
0.0
 43
0.0
 43
0.0
 43
0.0208333333333333
 43
0.0
 43
0.0
 43
0.0
 43
0.0
 43
1.0
 43
0.0
 43
0.0
 43
0.0
 43
0.0
 43
1.0
 77
     0
 47
0.0208333333333333
 47
0.0
 47
0.0
 47
0.0
 47
0.0
 47
0.0208333333333333
 47
0.0
 47
0.0
 47
0.0
 47
0.0
 47
1.0
 47
0.0
 47
0.0
 47
0.0
 47
0.0
 47
1.0
171
     0
 49
0.0208333333333333
 49
0.0
 49
0.0
 49
0.0
 49
0.0
 49
0.0208333333333333
 49
0.0
 49
0.0
 49
0.0
 49
0.0
 49
1.0
 49
0.0
 49
0.0
 49
0.0
 49
0.0
 49
1.0
175
     0
142
0.0208333333333333
142
0.0
142
0.0
142
0.0
142
0.0
142
0.0208333333333333
142
0.0
142
0.0
142
0.0
142
0.0
142
1.0
142
0.0
142
0.0
142
0.0
142
0.0
142
1.0
179
     0
144
0.0208333333333333
144
0.0
144
0.0
144
0.0
144
0.0
144
0.0208333333333333
144
0.0
144
0.0
144
0.0
144
0.0
144
1.0
144
0.0
144
0.0
144
0.0
144
0.0
144
1.0
147
0.0208333333333333
147
0.0
147
0.0
147
0.0
147
0.0
147
0.0208333333333333
147
0.0
147
0.0
147
0.0
147
0.0
147
1.0
147
0.0
147
0.0
147
0.0
147
0.0
147
1.0
  0
MATERIAL
  5
399
102
{ACAD_XDICTIONARY
360
39A
102
}
102
{ACAD_REACTORS
330
398
102
}
330
398
100
AcDbMaterial
  1
ByLayer
 72
     0
 43
0.0208333333333333
 43
0.0
 43
0.0
 43
0.0
 43
0.0
 43
0.0208333333333333
 43
0.0
 43
0.0
 43
0.0
 43
0.0
 43
1.0
 43
0.0
 43
0.0
 43
0.0
 43
0.0
 43
1.0
 77
     0
 47
0.0208333333333333
 47
0.0
 47
0.0
 47
0.0
 47
0.0
 47
0.0208333333333333
 47
0.0
 47
0.0
 47
0.0
 47
0.0
 47
1.0
 47
0.0
 47
0.0
 47
0.0
 47
0.0
 47
1.0
171
     0
 49
0.0208333333333333
 49
0.0
 49
0.0
 49
0.0
 49
0.0
 49
0.0208333333333333
 49
0.0
 49
0.0
 49
0.0
 49
0.0
 49
1.0
 49
0.0
 49
0.0
 49
0.0
 49
0.0
 49
1.0
175
     0
142
0.0208333333333333
142
0.0
142
0.0
142
0.0
142
0.0
142
0.0208333333333333
142
0.0
142
0.0
142
0.0
142
0.0
142
1.0
142
0.0
142
0.0
142
0.0
142
0.0
142
1.0
179
     0
144
0.0208333333333333
144
0.0
144
0.0
144
0.0
144
0.0
144
0.0208333333333333
144
0.0
144
0.0
144
0.0
144
0.0
144
1.0
144
0.0
144
0.0
144
0.0
144
0.0
144
1.0
147
0.0208333333333333
147
0.0
147
0.0
147
0.0
147
0.0
147
0.0208333333333333
147
0.0
147
0.0
147
0.0
147
0.0
147
1.0
147
0.0
147
0.0
147
0.0
147
0.0
147
1.0
  0
MATERIAL
  5
3A9
102
{ACAD_XDICTIONARY
360
3AA
102
}
102
{ACAD_REACTORS
330
398
102
}
330
398
100
AcDbMaterial
  1
Global
 72
     0
 43
0.0208333333333333
 43
0.0
 43
0.0
 43
0.0
 43
0.0
 43
0.0208333333333333
 43
0.0
 43
0.0
 43
0.0
 43
0.0
 43
1.0
 43
0.0
 43
0.0
 43
0.0
 43
0.0
 43
1.0
 77
     0
 47
0.0208333333333333
 47
0.0
 47
0.0
 47
0.0
 47
0.0
 47
0.0208333333333333
 47
0.0
 47
0.0
 47
0.0
 47
0.0
 47
1.0
 47
0.0
 47
0.0
 47
0.0
 47
0.0
 47
1.0
171
     0
 49
0.0208333333333333
 49
0.0
 49
0.0
 49
0.0
 49
0.0
 49
0.0208333333333333
 49
0.0
 49
0.0
 49
0.0
 49
0.0
 49
1.0
 49
0.0
 49
0.0
 49
0.0
 49
0.0
 49
1.0
175
     0
142
0.0208333333333333
142
0.0
142
0.0
142
0.0
142
0.0
142
0.0208333333333333
142
0.0
142
0.0
142
0.0
142
0.0
142
1.0
142
0.0
142
0.0
142
0.0
142
0.0
142
1.0
179
     0
144
0.0208333333333333
144
0.0
144
0.0
144
0.0
144
0.0
144
0.0208333333333333
144
0.0
144
0.0
144
0.0
144
0.0
144
1.0
144
0.0
144
0.0
144
0.0
144
0.0
144
1.0
147
0.0208333333333333
147
0.0
147
0.0
147
0.0
147
0.0
147
0.0208333333333333
147
0.0
147
0.0
147
0.0
147
0.0
147
1.0
147
0.0
147
0.0
147
0.0
147
0.0
147
1.0
  0
MLEADERSTYLE
  5
3B3
102
{ACAD_REACTORS
330
396
102
}
330
396
100
AcDbMLeaderStyle
170
     2
171
     1
172
     0
 90
        2
 40
0.0
 41
0.0
173
     1
 91
-1056964608
340
14
 92
       -2
290
     1
 42
0.09
291
     1
 43
0.36
  3
Standard
 44
0.18
300

342
11
174
     1
178
     6
175
     1
176
     0
 93
-1056964608
 45
0.18
292
     0
297
     0
 46
0.18
 94
-1056964608
 47
1.0
 49
1.0
140
1.0
293
     1
141
0.0
294
     1
177
     0
142
1.0
295
     0
296
     0
143
0.125
1001
ACAD_MLEADERVER
1070
     2
  0
MLINESTYLE
  5
18
102
{ACAD_REACTORS
330
17
102
}
330
17
100
AcDbMlineStyle
  2
STANDARD
 70
     0
  3

 62
   256
 51
90.0
 52
90.0
 71
     2
 49
0.5
 62
   256
  6
BYLAYER
 49
-0.5
 62
   256
  6
BYLAYER
  0
ACDBPLACEHOLDER
  5
F
102
{ACAD_REACTORS
330
E
102
}
330
E
  0
SCALE
  5
3C
102
{ACAD_REACTORS
330
3B
102
}
330
3B
100
AcDbScale
 70
     0
300
1:1
140
1.0
141
1.0
290
     1
  0
SCALE
  5
3D
102
{ACAD_REACTORS
330
3B
102
}
330
3B
100
AcDbScale
 70
     0
300
1:2
140
1.0
141
2.0
290
     0
  0
SCALE
  5
3E
102
{ACAD_REACTORS
330
3B
102
}
330
3B
100
AcDbScale
 70
     0
300
1:4
140
1.0
141
4.0
290
     0
  0
SCALE
  5
3F
102
{ACAD_REACTORS
330
3B
102
}
330
3B
100
AcDbScale
 70
     0
300
1:5
140
1.0
141
5.0
290
     0
  0
SCALE
  5
40
102
{ACAD_REACTORS
330
3B
102
}
330
3B
100
AcDbScale
 70
     0
300
1:8
140
1.0
141
8.0
290
     0
  0
SCALE
  5
41
102
{ACAD_REACTORS
330
3B
102
}
330
3B
100
AcDbScale
 70
     0
300
1:10
140
1.0
141
10.0
290
     0
  0
SCALE
  5
42
102
{ACAD_REACTORS
330
3B
102
}
330
3B
100
AcDbScale
 70
     0
300
1:16
140
1.0
141
16.0
290
     0
  0
SCALE
  5
43
102
{ACAD_REACTORS
330
3B
102
}
330
3B
100
AcDbScale
 70
     0
300
1:20
140
1.0
141
20.0
290
     0
  0
SCALE
  5
44
102
{ACAD_REACTORS
330
3B
102
}
330
3B
100
AcDbScale
 70
     0
300
1:30
140
1.0
141
30.0
290
     0
  0
SCALE
  5
45
102
{ACAD_REACTORS
330
3B
102
}
330
3B
100
AcDbScale
 70
     0
300
1:40
140
1.0
141
40.0
290
     0
  0
SCALE
  5
46
102
{ACAD_REACTORS
330
3B
102
}
330
3B
100
AcDbScale
 70
     0
300
1:50
140
1.0
141
50.0
290
     0
  0
SCALE
  5
47
102
{ACAD_REACTORS
330
3B
102
}
330
3B
100
AcDbScale
 70
     0
300
1:100
140
1.0
141
100.0
290
     0
  0
SCALE
  5
48
102
{ACAD_REACTORS
330
3B
102
}
330
3B
100
AcDbScale
 70
     0
300
2:1
140
2.0
141
1.0
290
     0
  0
SCALE
  5
49
102
{ACAD_REACTORS
330
3B
102
}
330
3B
100
AcDbScale
 70
     0
300
4:1
140
4.0
141
1.0
290
     0
  0
SCALE
  5
4A
102
{ACAD_REACTORS
330
3B
102
}
330
3B
100
AcDbScale
 70
     0
300
8:1
140
8.0
141
1.0
290
     0
  0
SCALE
  5
4B
102
{ACAD_REACTORS
330
3B
102
}
330
3B
100
AcDbScale
 70
     0
300
10:1
140
10.0
141
1.0
290
     0
  0
SCALE
  5
4C
102
{ACAD_REACTORS
330
3B
102
}
330
3B
100
AcDbScale
 70
     0
300
100:1
140
100.0
141
1.0
290
     0
  0
SCALE
  5
4D
102
{ACAD_REACTORS
330
3B
102
}
330
3B
100
AcDbScale
 70
     0
300
1/128" = 1'-0"
140
0.0078125
141
12.0
290
     0
  0
SCALE
  5
4E
102
{ACAD_REACTORS
330
3B
102
}
330
3B
100
AcDbScale
 70
     0
300
1/64" = 1'-0"
140
0.015625
141
12.0
290
     0
  0
SCALE
  5
4F
102
{ACAD_REACTORS
330
3B
102
}
330
3B
100
AcDbScale
 70
     0
300
1/32" = 1'-0"
140
0.03125
141
12.0
290
     0
  0
SCALE
  5
50
102
{ACAD_REACTORS
330
3B
102
}
330
3B
100
AcDbScale
 70
     0
300
1/16" = 1'-0"
140
0.0625
141
12.0
290
     0
  0
SCALE
  5
51
102
{ACAD_REACTORS
330
3B
102
}
330
3B
100
AcDbScale
 70
     0
300
3/32" = 1'-0"
140
0.09375
141
12.0
290
     0
  0
SCALE
  5
52
102
{ACAD_REACTORS
330
3B
102
}
330
3B
100
AcDbScale
 70
     0
300
1/8" = 1'-0"
140
0.125
141
12.0
290
     0
  0
SCALE
  5
53
102
{ACAD_REACTORS
330
3B
102
}
330
3B
100
AcDbScale
 70
     0
300
3/16" = 1'-0"
140
0.1875
141
12.0
290
     0
  0
SCALE
  5
54
102
{ACAD_REACTORS
330
3B
102
}
330
3B
100
AcDbScale
 70
     0
300
1/4" = 1'-0"
140
0.25
141
12.0
290
     0
  0
SCALE
  5
55
102
{ACAD_REACTORS
330
3B
102
}
330
3B
100
AcDbScale
 70
     0
300
3/8" = 1'-0"
140
0.375
141
12.0
290
     0
  0
SCALE
  5
56
102
{ACAD_REACTORS
330
3B
102
}
330
3B
100
AcDbScale
 70
     0
300
1/2" = 1'-0"
140
0.5
141
12.0
290
     0
  0
SCALE
  5
57
102
{ACAD_REACTORS
330
3B
102
}
330
3B
100
AcDbScale
 70
     0
300
3/4" = 1'-0"
140
0.75
141
12.0
290
     0
  0
SCALE
  5
58
102
{ACAD_REACTORS
330
3B
102
}
330
3B
100
AcDbScale
 70
     0
300
1" = 1'-0"
140
1.0
141
12.0
290
     0
  0
SCALE
  5
59
102
{ACAD_REACTORS
330
3B
102
}
330
3B
100
AcDbScale
 70
     0
300
1-1/2" = 1'-0"
140
1.5
141
12.0
290
     0
  0
SCALE
  5
5A
102
{ACAD_REACTORS
330
3B
102
}
330
3B
100
AcDbScale
 70
     0
300
3" = 1'-0"
140
3.0
141
12.0
290
     0
  0
SCALE
  5
5B
102
{ACAD_REACTORS
330
3B
102
}
330
3B
100
AcDbScale
 70
     0
300
6" = 1'-0"
140
6.0
141
12.0
290
     0
  0
SCALE
  5
5C
102
{ACAD_REACTORS
330
3B
102
}
330
3B
100
AcDbScale
 70
     0
300
1'-0" = 1'-0"
140
12.0
141
12.0
290
     0
  0
TABLESTYLE
  5
3B2
102
{ACAD_XDICTIONARY
360
3C0
102
}
102
{ACAD_REACTORS
330
395
102
}
330
395
100
AcDbTableStyle
  3
Standard
 70
     0
 71
     0
 40
0.06
 41
0.06
280
     0
281
     0
  7
Standard
140
0.18
170
     2
 62
     0
 63
     7
283
     0
274
    -2
284
     1
 64
     0
275
    -2
285
     1
 65
     0
276
    -2
286
     1
 66
     0
277
    -2
287
     1
 67
     0
278
    -2
288
     1
 68
     0
279
    -2
289
     1
 69
     0
  7
Standard
140
0.25
170
     5
 62
     0
 63
     7
283
     0
274
    -2
284
     1
 64
     0
275
    -2
285
     1
 65
     0
276
    -2
286
     1
 66
     0
277
    -2
287
     1
 67
     0
278
    -2
288
     1
 68
     0
279
    -2
289
     1
 69
     0
  7
Standard
140
0.18
170
     5
 62
     0
 63
     7
283
     0
274
    -2
284
     1
 64
     0
275
    -2
285
     1
 65
     0
276
    -2
286
     1
 66
     0
277
    -2
287
     1
 67
     0
278
    -2
288
     1
 68
     0
279
    -2
289
     1
 69
     0
  0
VISUALSTYLE
  5
2F
102
{ACAD_REACTORS
330
2A
102
}
330
2A
100
AcDbVisualStyle
  2
2dWireframe
 70
     4
 71
     0
 72
     2
 73
     0
 90
        0
 40
-0.6
 41
-30.0
 62
     5
 63
     7
 74
     1
 91
        4
 64
     7
 65
   257
 75
     1
175
     1
 42
1.0
 92
        0
 66
   257
 43
1.0
 76
     1
 77
     6
 78
     2
 67
     7
 79
     5
170
     0
171
     0
290
     0
174
     0
 93
        1
 44
0.0
173
     0
291
     0
 45
0.0
1001
ACAD
1000
AcDbSavedByObjectVersion
1070
     0
  0
VISUALSTYLE
  5
31
102
{ACAD_REACTORS
330
2A
102
}
330
2A
100
AcDbVisualStyle
  2
3D Hidden
 70
     6
 71
     1
 72
     2
 73
     2
 90
        0
 40
-0.6
 41
-30.0
 62
     5
 63
     7
 74
     2
 91
        2
 64
     7
 65
   257
 75
     2
175
     1
 42
40.0
 92
        0
 66
   257
 43
1.0
 76
     1
 77
     6
 78
     2
 67
     7
 79
     3
170
     0
171
     0
290
     0
174
     0
 93
        1
 44
0.0
173
     0
291
     0
 45
0.0
1001
ACAD
1000
AcDbSavedByObjectVersion
1070
     0
  0
VISUALSTYLE
  5
30
102
{ACAD_REACTORS
330
2A
102
}
330
2A
100
AcDbVisualStyle
  2
3dWireframe
 70
     5
 71
     0
 72
     2
 73
     0
 90
        0
 40
-0.6
 41
-30.0
 62
     5
 63
     7
 74
     1
 91
        4
 64
     7
 65
   257
 75
     1
175
     1
 42
1.0
 92
        0
 66
   257
 43
1.0
 76
     1
 77
     6
 78
     2
 67
     7
 79
     5
170
     0
171
     0
290
     0
174
     0
 93
        1
 44
0.0
173
     0
291
     0
 45
0.0
1001
ACAD
1000
AcDbSavedByObjectVersion
1070
     0
  0
VISUALSTYLE
  5
32
102
{ACAD_REACTORS
330
2A
102
}
330
2A
100
AcDbVisualStyle
  2
Basic
 70
     7
 71
     1
 72
     0
 73
     1
 90
        0
 40
-0.6
 41
-30.0
 62
     5
 63
     7
 74
     0
 91
        4
 64
     7
 65
   257
 75
     1
175
     1
 42
1.0
 92
        8
 66
     7
 43
1.0
 76
     1
 77
     6
 78
     2
 67
     7
 79
     5
170
     0
171
     0
290
     0
174
     0
 93
        1
 44
0.0
173
     0
291
     1
 45
0.0
1001
ACAD
1000
AcDbSavedByObjectVersion
1070
     0
  0
VISUALSTYLE
  5
36
102
{ACAD_REACTORS
330
2A
102
}
330
2A
100
AcDbVisualStyle
  2
Brighten
 70
    12
 71
     2
 72
     2
 73
     0
 90
        0
 40
-0.6
 41
-30.0
 62
     5
 63
     7
 74
     1
 91
        4
 64
     7
 65
   257
 75
     1
175
     1
 42
1.0
 92
        8
 66
     7
 43
1.0
 76
     1
 77
     6
 78
     2
 67
     7
 79
     5
170
     0
171
     0
290
     0
174
     0
 93
        1
 44
50.0
173
     0
291
     1
 45
0.0
1001
ACAD
1000
AcDbSavedByObjectVersion
1070
     0
  0
VISUALSTYLE
  5
3A
102
{ACAD_REACTORS
330
2A
102
}
330
2A
100
AcDbVisualStyle
  2
ColorChange
 70
    16
 71
     2
 72
     2
 73
     3
 90
        0
 40
-0.6
 41
-30.0
 62
     5
 63
     8
 74
     1
 91
        4
 64
     7
 65
   257
 75
     1
175
     1
 42
1.0
 92
        8
 66
     8
 43
1.0
 76
     1
 77
     6
 78
     2
 67
     7
 79
     5
170
     0
171
     0
290
     0
174
     0
 93
        1
 44
0.0
173
     0
291
     1
 45
0.0
1001
ACAD
1000
AcDbSavedByObjectVersion
1070
     0
  0
VISUALSTYLE
  5
34
102
{ACAD_REACTORS
330
2A
102
}
330
2A
100
AcDbVisualStyle
  2
Conceptual
 70
     9
 71
     3
 72
     2
 73
     0
 90
        0
 40
-0.6
 41
-30.0
 62
     5
 63
     7
 74
     2
 91
        2
 64
     7
 65
   257
 75
     1
175
     1
 42
40.0
 92
        8
 66
     7
 43
1.0
 76
     1
 77
     6
 78
     2
 67
     7
 79
     3
170
     0
171
     0
290
     0
174
     0
 93
        1
 44
0.0
173
     0
291
     0
 45
0.0
1001
ACAD
1000
AcDbSavedByObjectVersion
1070
     0
  0
VISUALSTYLE
  5
35
102
{ACAD_REACTORS
330
2A
102
}
330
2A
100
AcDbVisualStyle
  2
Dim
 70
    11
 71
     2
 72
     2
 73
     0
 90
        0
 40
-0.6
 41
-30.0
 62
     5
 63
     7
 74
     1
 91
        4
 64
     7
 65
   257
 75
     1
175
     1
 42
1.0
 92
        8
 66
     7
 43
1.0
 76
     1
 77
     6
 78
     2
 67
     7
 79
     5
170
     0
171
     0
290
     0
174
     0
 93
        1
 44
-50.0
173
     0
291
     1
 45
0.0
1001
ACAD
1000
AcDbSavedByObjectVersion
1070
     0
  0
VISUALSTYLE
  5
39
102
{ACAD_REACTORS
330
2A
102
}
330
2A
100
AcDbVisualStyle
  2
Facepattern
 70
    15
 71
     2
 72
     2
 73
     0
 90
        0
 40
-0.6
 41
-30.0
 62
     5
 63
     7
 74
     1
 91
        4
 64
     7
 65
   257
 75
     1
175
     1
 42
1.0
 92
        8
 66
     7
 43
1.0
 76
     1
 77
     6
 78
     2
 67
     7
 79
     5
170
     0
171
     0
290
     0
174
     0
 93
        1
 44
0.0
173
     0
291
     1
 45
0.0
1001
ACAD
1000
AcDbSavedByObjectVersion
1070
     0
  0
VISUALSTYLE
  5
2B
102
{ACAD_REACTORS
330
2A
102
}
330
2A
100
AcDbVisualStyle
  2
Flat
 70
     0
 71
     2
 72
     1
 73
     1
 90
        2
 40
-0.6
 41
30.0
 62
     5
 63
     7
 74
     0
 91
        4
 64
     7
 65
   257
 75
     1
175
     1
 42
1.0
 92
        8
 66
     7
 43
1.0
 76
     1
 77
     6
 78
     2
 67
     7
 79
     5
170
     0
171
     0
290
     0
174
     0
 93
       13
 44
0.0
173
     0
291
     1
 45
0.0
1001
ACAD
1000
AcDbSavedByObjectVersion
1070
     0
  0
VISUALSTYLE
  5
2C
102
{ACAD_REACTORS
330
2A
102
}
330
2A
100
AcDbVisualStyle
  2
FlatWithEdges
 70
     1
 71
     2
 72
     1
 73
     1
 90
        2
 40
-0.6
 41
30.0
 62
     5
 63
     7
 74
     1
 91
        4
 64
     7
 65
   257
 75
     1
175
     1
 42
1.0
 92
        0
 66
   257
 43
1.0
 76
     1
 77
     6
 78
     2
 67
     7
 79
     5
170
     0
171
     0
290
     0
174
     0
 93
       13
 44
0.0
173
     0
291
     1
 45
0.0
1001
ACAD
1000
AcDbSavedByObjectVersion
1070
     0
  0
VISUALSTYLE
  5
2D
102
{ACAD_REACTORS
330
2A
102
}
330
2A
100
AcDbVisualStyle
  2
Gouraud
 70
     2
 71
     2
 72
     2
 73
     1
 90
        2
 40
-0.6
 41
30.0
 62
     5
 63
     7
 74
     0
 91
        4
 64
     7
 65
   257
 75
     1
175
     1
 42
1.0
 92
        0
 66
     7
 43
1.0
 76
     1
 77
     6
 78
     2
 67
     7
 79
     5
170
     0
171
     0
290
     0
174
     0
 93
       13
 44
0.0
173
     0
291
     1
 45
0.0
1001
ACAD
1000
AcDbSavedByObjectVersion
1070
     0
  0
VISUALSTYLE
  5
2E
102
{ACAD_REACTORS
330
2A
102
}
330
2A
100
AcDbVisualStyle
  2
GouraudWithEdges
 70
     3
 71
     2
 72
     2
 73
     1
 90
        2
 40
-0.6
 41
30.0
 62
     5
 63
     7
 74
     1
 91
        4
 64
     7
 65
   257
 75
     1
175
     1
 42
1.0
 92
        0
 66
   257
 43
1.0
 76
     1
 77
     6
 78
     2
 67
     7
 79
     5
170
     0
171
     0
290
     0
174
     0
 93
       13
 44
0.0
173
     0
291
     1
 45
0.0
1001
ACAD
1000
AcDbSavedByObjectVersion
1070
     0
  0
VISUALSTYLE
  5
38
102
{ACAD_REACTORS
330
2A
102
}
330
2A
100
AcDbVisualStyle
  2
Linepattern
 70
    14
 71
     2
 72
     2
 73
     0
 90
        0
 40
-0.6
 41
-30.0
 62
     5
 63
     7
 74
     1
 91
        4
 64
     7
 65
   257
 75
     7
175
     7
 42
1.0
 92
        8
 66
     7
 43
1.0
 76
     1
 77
     6
 78
     2
 67
     7
 79
     5
170
     0
171
     0
290
     0
174
     0
 93
        1
 44
0.0
173
     0
291
     1
 45
0.0
1001
ACAD
1000
AcDbSavedByObjectVersion
1070
     0
  0
VISUALSTYLE
  5
33
102
{ACAD_REACTORS
330
2A
102
}
330
2A
100
AcDbVisualStyle
  2
Realistic
 70
     8
 71
     2
 72
     2
 73
     0
 90
        0
 40
-0.6
 41
-30.0
 62
     5
 63
     7
 74
     1
 91
        0
 64
     7
 65
   257
 75
     1
175
     1
 42
1.0
 92
        8
 66
     8
 43
1.0
 76
     1
 77
     6
 78
     2
 67
     7
 79
     5
170
     0
171
     0
290
     0
174
     0
 93
       13
 44
0.0
173
     0
291
     0
 45
0.0
1001
ACAD
1000
AcDbSavedByObjectVersion
1070
     0
  0
VISUALSTYLE
  5
37
102
{ACAD_REACTORS
330
2A
102
}
330
2A
100
AcDbVisualStyle
  2
Thicken
 70
    13
 71
     2
 72
     2
 73
     0
 90
        0
 40
-0.6
 41
-30.0
 62
     5
 63
     7
 74
     1
 91
        4
 64
     7
 65
   257
 75
     1
175
     1
 42
1.0
 92
       12
 66
     7
 43
1.0
 76
     1
 77
     6
 78
     2
 67
     7
 79
     5
170
     0
171
     0
290
     0
174
     0
 93
        1
 44
0.0
173
     0
291
     1
 45
0.0
1001
ACAD
1000
AcDbSavedByObjectVersion
1070
     0
  0
DICTIONARYVAR
  5
394
102
{ACAD_REACTORS
330
393
102
}
330
393
100
DictionaryVariables
280
     0
  1
1:1
  0
DICTIONARYVAR
  5
3BC
102
{ACAD_REACTORS
330
393
102
}
330
393
100
DictionaryVariables
280
     0
  1
STANDARD
  0
DICTIONARYVAR
  5
3BB
102
{ACAD_REACTORS
330
393
102
}
330
393
100
DictionaryVariables
280
     0
  1
STANDARD
  0
DICTIONARYVAR
  5
3BF
102
{ACAD_REACTORS
330
393
102
}
330
393
100
DictionaryVariables
280
     0
  1
1
  0
DICTIONARYVAR
  5
3BE
102
{ACAD_REACTORS
330
393
102
}
330
393
100
DictionaryVariables
280
     0
  1
0
  0
DICTIONARYVAR
  5
3BD
102
{ACAD_REACTORS
330
393
102
}
330
393
100
DictionaryVariables
280
     0
  1
127
  0
DICTIONARY
  5
3C4
330
1E
100
AcDbDictionary
280
     1
281
     1
  3
ACAD_XREC_ROUNDTRIP
360
3C5
  0
DICTIONARY
  5
3C8
330
26
100
AcDbDictionary
280
     1
281
     1
  3
ACAD_XREC_ROUNDTRIP
360
3C9
  0
DICTIONARY
  5
3C6
330
22
100
AcDbDictionary
280
     1
281
     1
  3
ACAD_XREC_ROUNDTRIP
360
3C7
  0
DICTIONARY
  5
3A2
330
3A1
100
AcDbDictionary
280
     1
281
     1
  3
ACAD_XREC_ROUNDTRIP
360
3CB
  3
BUMPTILE
360
3A4
  3
DIFFUSETILE
360
3A3
  3
OPACITYTILE
360
3A7
  3
REFLECTIONTILE
360
3A6
  3
REFRACTIONTILE
360
3A8
  3
SPECULARTILE
360
3A5
  0
DICTIONARY
  5
39A
330
399
100
AcDbDictionary
280
     1
281
     1
  3
ACAD_XREC_ROUNDTRIP
360
3CA
  3
BUMPTILE
360
39C
  3
DIFFUSETILE
360
39B
  3
OPACITYTILE
360
39F
  3
REFLECTIONTILE
360
39E
  3
REFRACTIONTILE
360
3A0
  3
SPECULARTILE
360
39D
  0
DICTIONARY
  5
3AA
330
3A9
100
AcDbDictionary
280
     1
281
     1
  3
ACAD_XREC_ROUNDTRIP
360
3CC
  3
BUMPTILE
360
3AC
  3
DIFFUSETILE
360
3AB
  3
OPACITYTILE
360
3AF
  3
REFLECTIONTILE
360
3AE
  3
REFRACTIONTILE
360
3B0
  3
SPECULARTILE
360
3AD
  0
DICTIONARY
  5
3C0
330
3B2
100
AcDbDictionary
280
     1
281
     1
  3
ACAD_ROUNDTRIP_2008_TABLESTYLE_CELLSTYLEMAP
360
3C1
  3
ACAD_XREC_ROUNDTRIP
360
3CD
  0
XRECORD
  5
3C5
102
{ACAD_REACTORS
330
3C4
102
}
330
3C4
100
AcDbXrecord
280
     1
102
SHADEPLOT
 70
     0
102
SHADEPLOTRESLEVEL
 70
     2
102
SHADEPLOTCUSTOMDPI
 70
   300
  0
XRECORD
  5
3C9
102
{ACAD_REACTORS
330
3C8
102
}
330
3C8
100
AcDbXrecord
280
     1
102
SHADEPLOT
 70
     0
102
SHADEPLOTRESLEVEL
 70
     2
102
SHADEPLOTCUSTOMDPI
 70
   300
  0
XRECORD
  5
3C7
102
{ACAD_REACTORS
330
3C6
102
}
330
3C6
100
AcDbXrecord
280
     1
102
SHADEPLOT
 70
     0
102
SHADEPLOTRESLEVEL
 70
     2
102
SHADEPLOTCUSTOMDPI
 70
   300
  0
XRECORD
  5
3CB
102
{ACAD_REACTORS
330
3A2
102
}
330
3A2
100
AcDbXrecord
280
     1
102
MATERIAL
148
0.0
149
0.0
149
0.0
 93
        0
 94
      127
282
     0
 72
     0
 77
     0
171
     0
175
     0
179
     0
273
     0
  0
XRECORD
  5
3A4
102
{ACAD_REACTORS
330
3A2
102
}
330
3A2
100
AcDbXrecord
280
     1
270
     1
271
     1
  0
XRECORD
  5
3A3
102
{ACAD_REACTORS
330
3A2
102
}
330
3A2
100
AcDbXrecord
280
     1
270
     1
271
     1
  0
XRECORD
  5
3A7
102
{ACAD_REACTORS
330
3A2
102
}
330
3A2
100
AcDbXrecord
280
     1
270
     1
271
     1
  0
XRECORD
  5
3A6
102
{ACAD_REACTORS
330
3A2
102
}
330
3A2
100
AcDbXrecord
280
     1
270
     1
271
     1
  0
XRECORD
  5
3A8
102
{ACAD_REACTORS
330
3A2
102
}
330
3A2
100
AcDbXrecord
280
     1
270
     1
271
     1
  0
XRECORD
  5
3A5
102
{ACAD_REACTORS
330
3A2
102
}
330
3A2
100
AcDbXrecord
280
     1
270
     1
271
     1
  0
XRECORD
  5
3CA
102
{ACAD_REACTORS
330
39A
102
}
330
39A
100
AcDbXrecord
280
     1
102
MATERIAL
148
0.0
149
0.0
149
0.0
 93
        0
 94
      127
282
     0
 72
     0
 77
     0
171
     0
175
     0
179
     0
273
     0
  0
XRECORD
  5
39C
102
{ACAD_REACTORS
330
39A
102
}
330
39A
100
AcDbXrecord
280
     1
270
     1
271
     1
  0
XRECORD
  5
39B
102
{ACAD_REACTORS
330
39A
102
}
330
39A
100
AcDbXrecord
280
     1
270
     1
271
     1
  0
XRECORD
  5
39F
102
{ACAD_REACTORS
330
39A
102
}
330
39A
100
AcDbXrecord
280
     1
270
     1
271
     1
  0
XRECORD
  5
39E
102
{ACAD_REACTORS
330
39A
102
}
330
39A
100
AcDbXrecord
280
     1
270
     1
271
     1
  0
XRECORD
  5
3A0
102
{ACAD_REACTORS
330
39A
102
}
330
39A
100
AcDbXrecord
280
     1
270
     1
271
     1
  0
XRECORD
  5
39D
102
{ACAD_REACTORS
330
39A
102
}
330
39A
100
AcDbXrecord
280
     1
270
     1
271
     1
  0
XRECORD
  5
3CC
102
{ACAD_REACTORS
330
3AA
102
}
330
3AA
100
AcDbXrecord
280
     1
102
MATERIAL
148
0.0
149
0.0
149
0.0
 93
        0
 94
      127
282
     0
 72
     0
 77
     0
171
     0
175
     0
179
     0
273
     0
  0
XRECORD
  5
3AC
102
{ACAD_REACTORS
330
3AA
102
}
330
3AA
100
AcDbXrecord
280
     1
270
     1
271
     1
  0
XRECORD
  5
3AB
102
{ACAD_REACTORS
330
3AA
102
}
330
3AA
100
AcDbXrecord
280
     1
270
     1
271
     1
  0
XRECORD
  5
3AF
102
{ACAD_REACTORS
330
3AA
102
}
330
3AA
100
AcDbXrecord
280
     1
270
     1
271
     1
  0
XRECORD
  5
3AE
102
{ACAD_REACTORS
330
3AA
102
}
330
3AA
100
AcDbXrecord
280
     1
270
     1
271
     1
  0
XRECORD
  5
3B0
102
{ACAD_REACTORS
330
3AA
102
}
330
3AA
100
AcDbXrecord
280
     1
270
     1
271
     1
  0
XRECORD
  5
3AD
102
{ACAD_REACTORS
330
3AA
102
}
330
3AA
100
AcDbXrecord
280
     1
270
     1
271
     1
  0
CELLSTYLEMAP
  5
3C1
102
{ACAD_REACTORS
330
3C0
102
}
330
3C0
100
AcDbCellStyleMap
 90
        3
300
CELLSTYLE
  1
TABLEFORMAT_BEGIN
 90
        5
170
     1
 91
        0
 92
    32768
 62
   257
 93
        1
300
CONTENTFORMAT
  1
CONTENTFORMAT_BEGIN
 90
        0
 91
        0
 92
      512
 93
        0
300

 40
0.0
140
1.0
 94
        5
 62
     0
340
11
144
0.25
309
CONTENTFORMAT_END
171
     0
 94
        0
309
TABLEFORMAT_END
  1
CELLSTYLE_BEGIN
 90
        1
 91
        1
300
_TITLE
309
CELLSTYLE_END
300
CELLSTYLE
  1
TABLEFORMAT_BEGIN
 90
        5
170
     1
 91
        0
 92
        0
 62
   257
 93
        1
300
CONTENTFORMAT
  1
CONTENTFORMAT_BEGIN
 90
        0
 91
        0
 92
      512
 93
        0
300

 40
0.0
140
1.0
 94
        5
 62
     0
340
11
144
0.18
309
CONTENTFORMAT_END
171
     0
 94
        0
309
TABLEFORMAT_END
  1
CELLSTYLE_BEGIN
 90
        2
 91
        1
300
_HEADER
309
CELLSTYLE_END
300
CELLSTYLE
  1
TABLEFORMAT_BEGIN
 90
        5
170
     1
 91
        0
 92
        0
 62
   257
 93
        1
300
CONTENTFORMAT
  1
CONTENTFORMAT_BEGIN
 90
        0
 91
        0
 92
      512
 93
        0
300

 40
0.0
140
1.0
 94
        2
 62
     0
340
11
144
0.18
309
CONTENTFORMAT_END
171
     0
 94
        0
309
TABLEFORMAT_END
  1
CELLSTYLE_BEGIN
 90
        3
 91
        2
300
_DATA
309
CELLSTYLE_END
  0
XRECORD
  5
3CD
102
{ACAD_REACTORS
330
3C0
102
}
330
3C0
100
AcDbXrecord
280
     1
102
ACAD_ROUNDTRIP_PRE2007_TABLESTYLE
 90
      512
 91
        0
  1

 92
      512
 93
        0
  2

 94
      512
 95
        0
  3

  0
ENDSEC
  0
EOF
